Cifra Club

Uma Vida Inteira

Falamansa

Cifra: Principal (violão e guitarra)
Selo Cifra Club: esta cifra foi revisada para atender aos critérios oficiais da nossa Equipe de Qualidade.
tom: F
Int:
                                  Bb                             F
E|----------8--11--10--8--10--8|--------------------------------------|
B|------10---------------------------------------8------8------10-----|
G|--10------------------------------7--7--7--10-----10-----10---------|
D|--------------------------------------------------------------------|
A|--------------------------------------------------------------------|
E|--------------------------------------------------------------------|

                                  Bb                             F
E|----------8--11--10--8--10--8|--------------------------------------|
B|------10---------------------------------------8------8------10-----|
G|--10------------------------------7--7--7--10-----10-----10---------|
D|--------------------------------------------------------------------|
A|--------------------------------------------------------------------|
E|--------------------------------------------------------------------|

                           Bb
A gente já não consegue ver
                                    F
Pra sempre perto mesmo longe de você
                        Bb                            F
Se me sinto vazio agora    pior é quando você vai embora
        A7           Dm               F7                 Bb
Aí voce vai entender   que precisamos um do outro pra viver,
       C7  F7
Pra viver  ê   ê

Bb   F  C7              G
  Deixa   fazer da sua maneira
Bb  F  C             Dm
  Seja  por uma vida inteira

Bb   F  C7              G
  Deixa   fazer da sua maneira
Bb  F  C             Dm     Bb F
  Seja  por uma vida inteira

                                 Bb                             F
E|----------8--11--10--8--10--8|--------------------------------------|
B|------10---------------------------------------8------8------10-----|
G|--10------------------------------7--7--7--10-----10-----10---------|
D|--------------------------------------------------------------------|
A|--------------------------------------------------------------------|
E|--------------------------------------------------------------------|

                                  Bb                             F
E|----------8--11--10--8--10--8|--------------------------------------|
B|------10---------------------------------------8------8------10-----|
G|--10------------------------------7--7--7--10-----10-----10---------|
D|--------------------------------------------------------------------|
A|--------------------------------------------------------------------|
E|--------------------------------------------------------------------|
                        Bb
Um dia você vai entender
                                  F
Que é necessário se auto-conhecer
                          Bb                              F
Ver que a vida não demora   que na verdade ela é uma escola
              A7        Dm
E tem que de tudo fazer
           F7               Bb         C7  F7
Afinal se nasceu foi pra viver, pra viver  ê ê


Bb   F  C7              G
  Deixa   fazer da sua maneira
Bb  F  C             Dm
  Seja  por uma vida inteira

Bb   F  C7              G
  Deixa   fazer da sua maneira
Bb  F  C             Dm     Bb F
  Seja  por uma vida inteira

                                 Bb                             F
E|----------8--11--10--8--10--8|--------------------------------------|
B|------10---------------------------------------8------8------10-----|
G|--10------------------------------7--7--7--10-----10-----10---------|
D|--------------------------------------------------------------------|
A|--------------------------------------------------------------------|
E|--------------------------------------------------------------------|

                                  Bb                             F
E|----------8--11--10--8--10--8|--------------------------------------|
B|------10---------------------------------------8------8------10-----|
G|--10------------------------------7--7--7--10-----10-----10---------|
D|--------------------------------------------------------------------|
A|--------------------------------------------------------------------|
E|--------------------------------------------------------------------|

                 Bb
A gente já não consegue ver
                                    F
Pra sempre perto mesmo longe de você
                        Bb                            F
Se me sinto vazio agora    pior é quando você vai embora
        A7           Dm               F7                 Bb
Aí voce vai entender   que precisamos um do outro pra viver,
       C7  F7
Pra viver  ê   ê

Bb   F  C7              G
  Deixa   fazer da sua maneira
Bb  F  C             Dm
  Seja  por uma vida inteira

Bb   F  C7              G
  Deixa   fazer da sua maneira
Bb  F  C             Dm     Bb F
  Seja  por uma vida inteira


                                 Bb                             F
E|----------8--11--10--8--10--8|--------------------------------------|
B|------10---------------------------------------8------8------10-----|
G|--10------------------------------7--7--7--10-----10-----10---------|
D|--------------------------------------------------------------------|
A|--------------------------------------------------------------------|
E|--------------------------------------------------------------------|

                                  Bb                             F
E|----------8--11--10--8--10--8|--------------------------------------|
B|------10---------------------------------------8------8------10-----|
G|--10------------------------------7--7--7--10-----10-----10---------|
D|--------------------------------------------------------------------|
A|--------------------------------------------------------------------|
E|--------------------------------------------------------------------|
Outros vídeos desta música
    1.343 exibições
      • ½ Tom
      • A
      • Bb
      • B
      • C
      • Db
      • D
      • Eb
      • E
      • F
      • F#
      • G
      • Ab
    • Adicionar à lista

    Afinação da cifra

    Afinador online

      0 comentários

      Ver todos os comentários

      Entre para o Cifra Club PRO

      Tenha acesso a benefícios exclusivos no App e no Site

      • Chega de anúncios

      • Badges exclusivas

      • Mais recursos no app do Afinador

      • Atendimento Prioritário

      • Aumente seu limite de lista

      • Ajude a produzir mais conteúdo

      Cifra Club Pro

      Aproveite o Cifra Club com benefícios exclusivos e sem anúncios
      Cifra Club Pro
      Aproveite o Cifra Club com benefícios exclusivos e sem anúncios
      OK