Cifra Club

Aprenda

Beat It

Fall Out Boy

Cifra: Principal (violão e guitarra)
Tom: D
Tuning: DADGBe

Guitar 1

Intro. Pt.1
E |-----------------------------------------------------------------------------|
B |-----------------------------------------------------------------------------|
G |-----------------------------------------------------------------------------|
D |-----------------------------------------------------------------------------|
A |---0-0--5-8-5-5/7-5-3-3------------------------------------------------------|
E |-----------------------------------------------------------------------------|

Verse. 1 Pt.1

Guitar 1
E |---------------------------------------------------------------------------|
B |---------------------------------------------------------------------------|
G |---------------------------------------------------------------------------|
D |---0-0-0---10-10-10\----0-0-0---10-10-10\----8-8-8----10-10-10\------------|
A |---0-0-0---10-10-10\----0-0-0---10-10-10\----8-8-8----10-10-10\------------|
D |---0-0-0---10-10-10\----0-0-0---10-10-10\----8-8-8----10-10-10\------------|
     . . .    .  .  .     . . .    .  .  .     . . .     .  .  .

E |-------------------------------------------|
B |-------------------------------------------|
G |-------------------------------------------|
D |---12-12-12--10-10-10\---------------------|
A |---12-12-12--10-10-10\---------------------|
D |---12-12-12--10-10-10\---------------------|
      .  .  .   .  .  .
Verse.1 Pt.2 (this time without Palm Mute.)
E |---------------------------------------------------------------------------|
B |---------------------------------------------------------------------------|
G |---------------------------------------------------------------------------|
D |---0-0-0---10-10-10\----0-0-0---10-10-10\----8-8-8----10-10-10\------------|
A |---0-0-0---10-10-10\----0-0-0---10-10-10\----8-8-8----10-10-10\------------|
D |---0-0-0---10-10-10\----0-0-0---10-10-10\----8-8-8----10-10-10\------------|

E |-------------------------------------------|
B |-------------------------------------------|
G |-------------------------------------------|
D |---12-12-12--10-10-10\---------------------|
A |---12-12-12--10-10-10\---------------------|
D |---12-12-12--10-10-10\---------------------|

Throw in a few muted notes like on the song also inbetween parts
E |-----------------------|
B |-----------------------|
G |-----------------------|
D |---x-x-x---------------|
A |---x-x-x---------------|
D |---x-x-x---------------|

Verse.1 Pt.2 Guitar 2
E |-----------------------------|
B |-----------------------------|
G |----7----------7-----10------|
D |--------10-------------------|
A |-----------------------------|
D |-----------------------------|
      .    .     .     .
Chorus Guitar 1
E |--------------------------------------------------------------------------------|
B |--------------------------------------------------------------------------------|
G |--------------------------------------------------------------------------------|
D |---------------3-------0---2---0------------------------------------------------|
A |-----------0-------5~~------------3---3-----------------------------------------|
D |---0---3------------------------------------------------------------------------|

E |--------------------------------------------------------------------------------|
B |--------------------------------------------------------------------------------|
G |--------------------------------------------------------------------------------|
D |---------------3-------0---2---0------------------------------------------------|
A |-----------0-------5~~------------3---3-3---------------------------------------|
D |---0---3------------------------------------------------------------------------|

Guitar 2
E |--------------------------------------------------------------------------------|
B |---10-10-10-11-10~~---8-8-8--8--------------------------------------------------|
G |--------------------------------------------------------------------------------|
D |--------------------------------------------------------------------------------|
A |--------------------------------------------------------------------------------|
D |--------------------------------------------------------------------------------|

Verse 2 Pt.1

Guitar 1
E |---------------------------------------------------------------------------|
B |---------------------------------------------------------------------------|
G |---------------------------------------------------------------------------|
D |---0-0-0---10-10-10\----0-0-0---10-10-10\----8-8-8----10-10-10\------------|
A |---0-0-0---10-10-10\----0-0-0---10-10-10\----8-8-8----10-10-10\------------|
D |---0-0-0---10-10-10\----0-0-0---10-10-10\----8-8-8----10-10-10\------------|
     . . .    .  .  .     . . .    .  .  .     . . .     .  .  .
E |-------------------------------------------|
B |-------------------------------------------|
G |-------------------------------------------|
D |---12-12-12--10-10-10\---------------------|
A |---12-12-12--10-10-10\---------------------|
D |---12-12-12--10-10-10\---------------------|
      .  .  .   .  .  .
Verse.2 Pt.1 Guitar 2
E |------------------------------------------------|
B |------------------------------------------------|
G |------------------------------------------------|
D |-12-x8---10-x8---12-x7--13---10-x8---8-x8---10x8|
A |------------------------------------------------|
D |------------------------------------------------|
   .....   .....   .....  ..   .....   ....   ....
Verse.2 Pt.2 Guitar 1 (this time without Palm Mute.)
E |---------------------------------------------------------------------------|
B |---------------------------------------------------------------------------|
G |---------------------------------------------------------------------------|
D |---0-0-0---10-10-10\----0-0-0---10-10-10\----8-8-8----10-10-10\------------|
A |---0-0-0---10-10-10\----0-0-0---10-10-10\----8-8-8----10-10-10\------------|
D |---0-0-0---10-10-10\----0-0-0---10-10-10\----8-8-8----10-10-10\------------|

E |-------------------------------------------|
B |-------------------------------------------|
G |-------------------------------------------|
D |---12-12-12--10-10-10\---------------------|
A |---12-12-12--10-10-10\---------------------|
D |---12-12-12--10-10-10\---------------------|

Throw in a few muted notes like on the song also inbetween parts
E |-----------------------|
B |-----------------------|
G |-----------------------|
D |---x-x-x---------------|
A |---x-x-x---------------|
D |---x-x-x---------------|

Verse.2 Pt.2 Guitar 2
E |-----------------------------|
B |-----------------------------|
G |----7----------7----10-------|
D |--------10-------------------|
A |-----------------------------|
D |-----------------------------|
      .    .     .     .
Mini Breakdown Guitar 1
E |--------------------------------------------------------------------------------|
B |------------------------------------------------------------19~-----------------|
G |--------------------------------------------------------------------------------|
D |----0-0-0-----0-0-0----------------0-0-0-----0-0-0------------------------------|
A |----0-0-0-----0-0-0----3~~/5-------0-0-0-----0-0-0------------------------------|
D |----0-0-0-----0-0-0----------------0-0-0-----0-0-0------------------------------|

Mini Breakdown Guitar 2
E |--------------------------------------------------------------------------------|
B |------------------------------------------------------------19~-----------------|
G |--------------------------------------------------------------------------------|
D |----0-0-0-----0-0-0----------------0-0-0-----0-0-0------------------------------|
A |----0-0-0-----0-0-0----3~~/5-------0-0-0-----0-0-0------------------------------|
D |----0-0-0-----0-0-0----------------0-0-0-----0-0-0------------------------------|

Have Yet To Figure Out The Solo Fully So I Wont Post What I Have Just Yet Incase Its
Will Post It As Soon As Possible Tho. =D

Intro. Pt.1     x1
Intro. Pt.2     x1
Verse. Pt.1     x1
Verse. Pt.2     x1
Chorus.         x4
Verse. Pt.1     x1
Verse. Pt.2     x1
Chorus.         x4
Mini Breakdown  x1
Solo. Pt.1      x1
Solo. Pt.2      x1

| /  slide up
| \  slide down
| h  hammer-on
| p  pull-off
| ~  vibrato
| +  harmonic
| x  Mute note
Composição de Michael Jackson
Colaboração e revisão:
  • Gabriel Martins
  • Gustavo Cintra
  • Jorge Umemaru
174.083 exibições
    • ½ Tom
    • A
    • Bb
    • B
    • C
    • Db
    • D
    • Eb
    • E
    • F
    • F#
    • G
    • Ab
  • Adicionar à lista

    0 comentários

    Mostrar mais comentários

    Conseguiu tocar?

    5 Tocaram 1 Ainda não

    Grave um vídeo tocando Beat It e mande pra gente!

    00:00 / 00:00
    outros vídeos desta música
    repetir qualidade Automático
    Outros vídeos desta música
    00:00 / 00:00
    Automático

    Cifra Club Pro

    Aproveite o Cifra Club com benefícios exclusivos e sem anúncios
    7 dias grátis
    Cifra Club Pro
    Aproveite o Cifra Club com benefícios exclusivos e sem anúncios
    7 dias grátis
    OK