Cifra Club

Aprenda

Thriller

Fall Out Boy

Cifra: Principal (violão e guitarra)
Tom: D
Intro

E|-----0-----------0-----------0-----------0-----------0-----------0---|
B|--10----10-10-10----10-10-10----10-10-10----10-10-10----10-10-10-----|
G|-7--7-----7--7--7-----7--6--6-----6--6--6-----6--0--0-----0--0--0----|
D|---------------------------------------------------------------------|
A|---------------------------------------------------------------------|
D|---------------------------------------------------------------------|

E|----------0-----------0------------||
B|-10-10-10----10-10-10----10-10---o-||
G|---0--6--6-----6--6--6-----6-------||
D|-----------------------------------||
A|---------------------------------o-||
D|-----------------------------------||

Breakdown
PM----------------------------------------
E|--------------------------------------------|
B|--------------------------------------------|
G|--------------------------------------------|
D|-0-0-0-0-0---0--0--0--0---0--0---0-0-0-0-0--|
A|-0-0-0-0-0---0--0--0--0---0--0---0-0-0-0-0--|
D|-0-0-0-0-0---0--0--0--0---0--0---0-0-0-0-0--|

Verse 1 - Let note ring throughout verse.

E|--------------------------------------------|
B|--------------------------------------------|
G|--------------------------------------------|
D|-0------------------------------------------|
A|-0------------------------------------------|
D|-0------------------------------------------|

Bridge

E|-----------------------------------------------------------------|
B|-----------------------------------------------------------------|
G|-4-4-4-4-4-4-4-4-2-2-2-2-2-2-2-2---------------------------------|
D|-4-4-4-4-4-4-4-4-2-2-2-2-2-2-2-2-5-5-5-5-5-5-5-5-0-0-0-0-0-0-0-0-|
A-2-2-2-2-2-2-2-2-0-0-0-0-0-0-0-0-5-5-5-5-5-5-5-5-0-0-0-0-0-0-0-0-|
D|---------------------------------5-5-5-5-5-5-5-5-0-0-0-0-0-0-0-0-|

E|-----------------------------------------------------------------|
B|-----------------------------------------------------------------|
G|-----------------------------------------------------------------|
D|-5-5-5-5-5-5-5-5-0-0-0-0-0-0-0-0-5-5-5-5-5-5-5-5-5-5-5-5-5-5-5-5-|
A-5-5-5-5-5-5-5-5-0-0-0-0-0-0-0-0-5-5-5-5-5-5-5-5-5-5-5-5-5-5-5-5-|
D|-5-5-5-5-5-5-5-5-0-0-0-0-0-0-0-0-5-5-5-5-5-5-5-5-5-5-5-5-5-5-5-5-|

E|-----------------------------------------------------------------|
B|-----------------------------------------------------------------|
G|-4-4-4-4-4-4-4-4-2-2-2-2-2-2-2-2---------------------------------|
D|-4-4-4-4-4-4-4-4-2-2-2-2-2-2-2-2-5-5-5-5-5-5-5-5-0-0-0-0-0-0-0-0-|
A-2-2-2-2-2-2-2-2-0-0-0-0-0-0-0-0-5-5-5-5-5-5-5-5-0-0-0-0-0-0-0-0-|
D|---------------------------------5-5-5-5-5-5-5-5-0-0-0-0-0-0-0-0-|

E|----------------------|
B|----------------------|
G|-7\-------------------|
D|-7\-------------------|
A|-5\-------------------|
D|----------------------|

Chorus

E|-----------------------------------------------------------------|
B|-----------------------------------------------------------------|
G|-----------------4-4-4-4-4-4-4-4---------------------------------|
D|-0-0-0-0-0-0-0-0-4-4-4-4-4-4-4-4-4-4-4-4-4-4-4-4-7-7-7-7-7-7-7-7-|
A-0-0-0-0-0-0-0-0-2-2-2-2-2-2-2-2-4-4-4-4-4-4-4-4-7-7-7-7-7-7-7-7-|
D|-0-0-0-0-0-0-0-0-----------------4-4-4-4-4-4-4-4-7-7-7-7-7-7-7-7-|
                                  PM        PM        PM
E|-----------------------------------------------------------------|
B|-----------------------------------------------------------------|
G|-----------------------------------------------------------------|
D|-5-5-5-5-5-5-5-/-9-9-9-9-9-9-9-9-7-7-7--7--7-7-7--7--7-7-7-------|
A|-5-5-5-5-5-5-5-/-9-9-9-9-9-9-9-9-7-7-7--7--7-7-7--7--7-7-7-------|
D|-5-5-5-5-5-5-5-/-9-9-9-9-9-9-9-9-7-7-7--7--7-7-7--7--7-7-7-------|

Repeat Breakdown

Verse 2
                           PM -------------------------------------------
E|------------------------------------------------------------------------|
B|------------------------------------------------------------------------|
G|------------------------------------------------------------------------|
D|-0------------------------0-0---0-0---0-0---0-0---0-0---0-0---0-0---0-0-|
A|-0------------------------0-0---0-0---0-0---0-0---0-0---0-0---0-0---0-0-|
D|-0------------------------0-0---0-0---0-0---0-0---0-0---0-0---0-0---0-0-|

Repeat Break

Repeat Chorus

Long live the car crash hearts

E|-------------------------------------------|
B|-------------------------------------------|
G|-------------------------------------------|
D|-0--------------------0--------------------|
A|-0--------------------0--------------------|
E|-0--------------------0--------------------|

Repeat Breakdown


Letra:

[Jay Z:]
Yeah, what you critics said would never happen.
We dedicate this album to anybody, people who said we couldn't make it.
To the fans that held us down till anybody came around.
Welcome. It's here.

Last summer we took threes across the board
But by fall we were a cover story
Now in stores
Make us poster boys in your scene
But we are not making an accepting speech
I have found the safest place to keep all of our mistakes
Every dot com's refreshing for a journal update

So long live the car-crash hearts
Cry on the couch till the poets come to life
Fix me in 45

So long live the car-crash hearts
Cry on the couch till the poets come to life
Fix me in 45

I can take your problems away
with a nod and a wave
Of my hand,
'Cause that's just the kind of boy that I am.
The only thing I haven't done yet is die
And it's me and my plus one in the afterlife
Crowds are won and lost and won again
But our hearts beat for the diehards

So long live the car-crash hearts
Cry on the couch till the poets come to life
Fix me in 45

So long live the car-crash hearts
Cry on the couch till the poets come to life
Fix me in 45

Long live the car-crash hearts
(Long live the car-crash hearts)
Long live the car-crash hearts
(Long live the car-crash hearts)

Long live the car-crash hearts
Cry on the couch till the poets come to life
Fix me in 45

[Jay Z:]
Young FOB.
Let's go.
Composição de Fall Out Boy
Colaboração e revisão:
  • Wesley Santos
16.037 exibições
    • ½ Tom
    • A
    • Bb
    • B
    • C
    • Db
    • D
    • Eb
    • E
    • F
    • F#
    • G
    • Ab
  • Adicionar à lista

    0 comentários

    Mostrar mais comentários

    Conseguiu tocar?

    1 Tocaram 0 Ainda não

    Grave um vídeo tocando Thriller e mande pra gente!

    00:00 / 00:00
    outros vídeos desta música
    repetir qualidade Automático
    Outros vídeos desta música
    00:00 / 00:00
    Automático

    Cifra Club Pro

    Aproveite o Cifra Club com benefícios exclusivos e sem anúncios
    7 dias grátis
    Cifra Club Pro
    Aproveite o Cifra Club com benefícios exclusivos e sem anúncios
    7 dias grátis
    OK