Cifra Club

Aprenda

Uma Thurman

Fall Out Boy

Cifra: Principal (violão e guitarra)
Tom: D
 Em             C
 I can move mountains
                  G               D
 I can work a miracle, work a miracle 
         Em               C
 Oh, oh, keep you like an oath
                  G        D
 "May nothing but death do us part"

E|--------------------------12----8--7--5-----7--5--------5------------------|
B|-----------------10--12---------------------------8--------8--7--5---------|
G|-----9--12--9-------------------------------------------------------7--9---|
D|---------------------------------------------------------------------------|
A|---------------------------------------------------------------------------|
E|---------------------------------------------------------------------------|

E|--------------------------12----8--7--5-----3--5--7------------------------|
B|-----------------10--12----------------------------------------------------|
G|-----9--12--9-----------------------------------------4---4---6--8--9------|
D|---------------------------------------------------------------------------|
A|---------------------------------------------------------------------------|
E|---------------------------------------------------------------------------|

Em                       C
 She wants to dance like Uma Thurman
 G                 D
 Bury me till I confess
Em                       C
 She wants to dance like Uma Thurman
       G                       D
 And I can't get you out of my head

     Em                     C
 The stench, the stench, of summer sex
     G            D
 And CK eternity, oh hell yes 
   Em                  C
 Divide me down to the smallest I can be
 G                     D
 Put your, put you v-v-venom in me


 Em             C
 I can move mountains
                  G               D
 I can work a miracle, work a miracle 
         Em               C
 Oh, oh, keep you like an oath
                  G        D
 "May nothing but death do us part"

E|--------------------------12----8--7--5-----7--5--------5------------------|
B|-----------------10--12---------------------------8--------8--7--5---------|
G|-----9--12--9-------------------------------------------------------7--9---|
D|---------------------------------------------------------------------------|
A|---------------------------------------------------------------------------|
E|---------------------------------------------------------------------------|

E|--------------------------12----8--7--5-----3--5--7------------------------|
B|-----------------10--12----------------------------------------------------|
G|-----9--12--9-----------------------------------------4---4---6--8--9------|
D|---------------------------------------------------------------------------|
A|---------------------------------------------------------------------------|
E|---------------------------------------------------------------------------|

Em                       C
 She wants to dance like Uma Thurman
 G                 D
 Bury me till I confess
Em                       C
 She wants to dance like Uma Thurman
       G                       D
 And I can't get you out of my head
 
     Em                    C
 The blood, the blood, the blood of the lamb
      G                    D
 It's worth two lions, but here I am
       Em                    C                      G
 And I slept in last night's clothes and tomorrow's dreams
                       D
 But they're not quite what they seem

 Em             C
 I can move mountains
                  G               D
 I can work a miracle, work a miracle 
         Em               C
 Oh, oh, keep you like an oath
                  G        D
 "May nothing but death do us part"

E|--------------------------12----8--7--5-----7--5--------5------------------|
B|-----------------10--12---------------------------8--------8--7--5---------|
G|-----9--12--9-------------------------------------------------------7--9---|
D|---------------------------------------------------------------------------|
A|---------------------------------------------------------------------------|
E|---------------------------------------------------------------------------|

E|--------------------------12----8--7--5-----3--5--7------------------------|
B|-----------------10--12----------------------------------------------------|
G|-----9--12--9-----------------------------------------4---4---6--8--9------|
D|---------------------------------------------------------------------------|
A|---------------------------------------------------------------------------|
E|---------------------------------------------------------------------------|

Em                C
 You'll find your way
         G               A
 And may death find you alive
 Em               C
 Take me down the line
        G                  A
 In Gem City we turned the tides
Em                C
 You'll find your way
         G               A
 And may death find you alive
 Em               C
 Take me down the line
        G                  A
 In Gem City we turned the tides

Em                       C
 She wants to dance like Uma Thurman
 G                 D
 Bury me till I confess
Em                       C
 She wants to dance like Uma Thurman
       G                       D
 And I can't get you out of my head

 Em             C
 I can move mountains
                  G               D
 I can work a miracle, work a miracle 
         Em               C
 Oh, oh, keep you like an oath
                  G        D
 "May nothing but death do us part"

 Em             C
 I can move mountains
                  G               D
 I can work a miracle, work a miracle 
         Em               C
 Oh, oh, keep you like an oath
                  G        D
 "May nothing but death do us part"
Composição de Fall Out Boy
Colaboração e revisão:
  • João Silva
5.995 exibições
    • ½ Tom
    • A
    • Bb
    • B
    • C
    • Db
    • D
    • Eb
    • E
    • F
    • F#
    • G
    • Ab
  • Adicionar à lista

    0 comentários

    Mostrar mais comentários

    Conseguiu tocar?

    2 Tocaram 1 Ainda não

    Grave um vídeo tocando Uma Thurman e mande pra gente!

    00:00 / 00:00
    outros vídeos desta música
    repetir qualidade Automático
    Outros vídeos desta música
    00:00 / 00:00
    Automático

    Cifra Club Pro

    Aproveite o Cifra Club com benefícios exclusivos e sem anúncios
    7 dias grátis
    Cifra Club Pro
    Aproveite o Cifra Club com benefícios exclusivos e sem anúncios
    7 dias grátis
    OK