Cifra Club

Die For You

Falling In Reverse

Cifra: Principal (violão e guitarra)
Selo Cifra Club: esta cifra foi revisada para atender aos critérios oficiais da nossa Equipe de Qualidade.
tom: C
Intro]

E|------------------------------------------------------------------|
B|------------------------------------------------------------------|
G|--------3----------------------10---------------------------------|
D|-------------------------------9----------------------------------|
A|-5-3-5-----0-0---0-00--0-00--0-8-----0-0---00------------8--------|
E|-----------0-0---0-00--0-00--0-------0-0---00--0-5-8-7-0---0-7-11-|
   1 + 2 + 3 + 4 + 1 + 2 + 3 + 4 + 1 + 2 + 3 + 4 + 1 + 2 + 3 + 4 +

E|-----------------------------------------------------------------|
B|-----------------------------------------------------------------|
G|--------3----------------------10--------------------------------|
D|-------------------------------9---------------------------------|
A|-5-3-5-----0-0---0-00--0-00--0-8-----0-0---00--------------------|
E|-----------0-0---0-00--0-00--0-------0-0---00--0-6-5-3-5-1-0-000-|
   1 + 2 + 3 + 4 + 1 + 2 + 3 + 4 + 1 + 2 + 3 + 4 + 1 + 2 + 3 + 4 +

E|------------------------------------------------------------------|
B|------------------------------------------------------------------|
G|--------3----------------------10---------------------------------|
D|-------------------------------9----------------------------------|
A|-5-3-5-----0-0---0-00--0-00--0-8-----0-0---00------------8--------|
E|-----------0-0---0-00--0-00--0-------0-0---00--0-5-8-7-0---0-7-11-|
   1 + 2 + 3 + 4 + 1 + 2 + 3 + 4 + 1 + 2 + 3 + 4 + 1 + 2 + 3 + 4 +

E|-----------------------------------------------------------------|
B|-----------------------------------------------------------------|
G|--------3----------------------10--------------------------------|
D|-------------------------------9---------------------------------|
A|-5-3-5-----0-0---0-00--0-00--0-8-----0-0---00----3---6---1-0-----|
E|-----------0-0---0-00--0-00--0-------0-0---00--0-3---6---1-0-----|
   1 + 2 + 3 + 4 + 1 + 2 + 3 + 4 + 1 + 2 + 3 + 4 + 1 + 2 + 3 + 4 +


[Verse 1] - All Palm-Muted

E|-----------------------------------------------------------------|
B|-----------------------------------------------------------------|
G|-----------------------------------------------------------------|
D|-----------------------------------------------------------------|
A|-0-0-0---0-0-0---0-0-0-0-0-0-0-0-0-0-0---0-0-0-0-0-0-0-0-0-0-0---|
E|-0-0-0---0-0-0---0-0-0-0-0-0-0-0-0-0-0---0-0-0-0-0-0-0-0-0-0-0---|
   1 e + a 2 e + a 3 e + a 4 e + a 1 e + a 2 e + a 3 e + a 4 e + a 

E|-----------------------------------------------------------------|
B|-----------------------------------------------------------------|
G|-----------------------------------------------------------------|
D|-----------------------------------------------------------------|
A|-3-3-3-3-3-3-3-3-1-1-1-1-3-3-3-3-4-4-4-4-0-0-0---0-0-0---0-0-0-0-|
E|-3-3-3-3-3-3-3-3-1-1-1-1-3-3-3-3-4-4-4-4-0-0-0---0-0-0---0-0-0-0-|
   1 e + a 2 e + a 3 e + a 4 e + a 1 e + a 2 e + a 3 e + a 4 e + a

E|-----------------------------------------------------------------|
B|-----------------------------------------------------------------|
G|-----------------------------------------------------------------|
D|-----------------------------------------------------------------|
A|-0-0-0-0-0-0-0---0-0-0-0-0-0-0-0-0-0-0---3-3-3-3-3-3-3-3-1-1-1-1-|
E|-0-0-0-0-0-0-0---0-0-0-0-0-0-0-0-0-0-0---3-3-3-3-3-3-3-3-1-1-1-1-|
   1 e + a 2 e + a 3 e + a 4 e + a 1 e + a 2 e + a 3 e + a 4 e + a

E|-----------------------------------------------------------------|
B|-----------------------------------------------------------------|
G|-----------------------------------------------------------------|
D|-----------------------------------------------------------------|
A|-3-3-3-3-4-4-4-4-0-0-0---0-0-0---0-0-0-0-0-0-0-0-0-0-0---0-0-0-0-|
E|-3-3-3-3-4-4-4-4-0-0-0---0-0-0---0-0-0-0-0-0-0-0-0-0-0---0-0-0-0-|
   1 e + a 2 e + a 3 e + a 4 e + a 1 e + a 2 e + a 3 e + a 4 e + a

E|-----------------------------------------------------------------|
B|-----------------------------------------------------------------|
G|-----------------------------------------------------------------|
D|-----------------------------------------------------------------|
A|-0-0-0-0-0-0-0---3-3-3-3-3-3-3-3-1-1-1-1-3-3-3-3-4-4-4-4-0-0-0---|
E|-0-0-0-0-0-0-0---3-3-3-3-3-3-3-3-1-1-1-1-3-3-3-3-4-4-4-4-0-0-0---|
   1 e + a 2 e + a 3 e + a 4 e + a 1 e + a 2 e + a 3 e + a 4 e + a

E|-----------------------------------------------------------------|
B|-----------------------------------------------------------------|
G|-----------------------------------------------------------------|
D|-----------------------------------------------------------------|
A|-0-0-0-0-0-0-0-0-0-0-0---0-0-0-0-0-0-0-0-0-0-0---3-3-3-3---------|
E|-0-0-0-0-0-0-0-0-0-0-0---0-0-0-0-0-0-0-0-0-0-0---3-3-3-3---------|
   1 e + a 2 e + a 3 e + a 4 e + a 1 e + a 2 e + a 3 e + a 4 e + a


[Chorus]

E|-------------------------------------------------------------------------------------------------|
B|-------------------------------------------------------------------------------------------------|
G|-14-14-14-14-14\12-12-12-12\10-10-10-10\9--9--9--9-\7--7--7-/9--9--9--9-/10-10-10-10/12-12-12/14-|
D|-------------------------------------------------------------------------------------------------|
A|-12-12-12-12-12\10-10-10-10\8--8--8--8-\7--7--7--7-\5--5--5-/7--7--7--7-/8--8--8--8-/10-10-10/12-|
E|-------------------------------------------------------------------------------------------------|
   1  e  +  a  2  e  +  a  3  e  +  a  4  e  +  a  1  e  +  a  2  e  +  a  3  e  +  a  4  e  +  a 
  
E|-------------------------------------------------------------------------------------------------|
B|-------------------------------------------------------------------------------------------------|
G|-15-15-15-15-15\14-14-14-14\12-12-12-12\10-10-10-10\9--9--9-/10-10-10-10/12-12-12-12/14-14-14-14-|
D|-------------------------------------------------------------------------------------------------|
A|-13-13-13-13-13\12-12-12-12\10-10-10-10\8--8--8--8-\7--7--7-/8--8--8--8-/10-10-10-10/12-12-12-12-|
E|-------------------------------------------------------------------------------------------------|
   1  e  +  a  2  e  +  a  3  e  +  a  4  e  +  a  1  e  +  a  2  e  +  a  3  e  +  a  4  e  +  a 

E|-------------------------------------------------------------------------------------------------|
B|-------------------------------------------------------------------------------------------------|
G|-12-12-12-12-12\10-10-10-10\9--9--9--9-\7--7--7-/9--9--9--9-/10-10-10-10/12-12-12-12/14-14-14-14-|
D|-------------------------------------------------------------------------------------------------|
A|-10-10-10-10-10\8--8--8--8-\7--7--7--7-\5--5--5-/7--7--7--7-/8--8--8--8-/10-10-10-10/12-12-12-12-|
E|-------------------------------------------------------------------------------------------------|
   1  e  +  a  2  e  +  a  3  e  +  a  4  e  +  a  1  e  +  a  2  e  +  a  3  e  +  a  4  e  +  a 

E|-------------------------------------------------------------------------|
B|-------------------------------------------------14-14-14-14-17-17-17-17-|
G|-9-9-9-9-9-9-9-9-9-9-9-9-9-9-9-9\6-6-6-6-6-6-6-6-------------------------|
D|-------------------------------------------------11-11-11-11-14-14-14-14-|
A|-7-7-7-7-7-7-7-7-7-7-7-7-7-7-7-7\4-4-4-4-4-4-4-4-------------------------|
E|-------------------------------------------------------------------------|
   1 e + a 2 e + a 3 e + a 4 e + a 1 e + a 2 e + a 3  e  +  a  4  e  +  a


[Verse 2]

E|-----------------------------------------------------------------|
B|-----------------------------------------------------------------|
G|-----------------------------------------------------------------|
D|-----------------------------------------------------------------|
A|-0-0-0---0-0-0---0-0-0-0-0-0-0-0-0-0-0---0-0-0-0-0-0-0-0-0-0-0---|
E|-0-0-0---0-0-0---0-0-0-0-0-0-0-0-0-0-0---0-0-0-0-0-0-0-0-0-0-0---|
   1 e + a 2 e + a 3 e + a 4 e + a 1 e + a 2 e + a 3 e + a 4 e + a 

E|-----------------------------------------------------------------|
B|-----------------------------------------------------------------|
G|-----------------------------------------------------------------|
D|-----------------------------------------------------------------|
A|-3-3-3-3-3-3-3-3-1-1-1-1-3-3-3-3-4-4-4-4-0-0-0---0-0-0---0-0-0-0-|
E|-3-3-3-3-3-3-3-3-1-1-1-1-3-3-3-3-4-4-4-4-0-0-0---0-0-0---0-0-0-0-|
   1 e + a 2 e + a 3 e + a 4 e + a 1 e + a 2 e + a 3 e + a 4 e + a

E|-----------------------------------------------------------------|
B|-----------------------------------------------------------------|
G|-----------------------------------------------------------------|
D|-----------------------------------------------------------------|
A|-0-0-0-0-0-0-0---0-0-0-0-0-0-0-0-0-0-0---3-3-3-3-3-3-3-3-1-1-1-1-|
E|-0-0-0-0-0-0-0---0-0-0-0-0-0-0-0-0-0-0---3-3-3-3-3-3-3-3-1-1-1-1-|
   1 e + a 2 e + a 3 e + a 4 e + a 1 e + a 2 e + a 3 e + a 4 e + a

E|-----------------------------------------------------------------|
B|-----------------------------------------------------------------|
G|-----------------------------------------------------------------|
D|-----------------------------------------------------------------|
A|-3-3-3-3-4-4-4-4-0-0-0---0-0-0---0-0-0-0-0-0-0-0-0-0-0---0-0-0-0-|
E|-3-3-3-3-4-4-4-4-0-0-0---0-0-0---0-0-0-0-0-0-0-0-0-0-0---0-0-0-0-|
   1 e + a 2 e + a 3 e + a 4 e + a 1 e + a 2 e + a 3 e + a 4 e + a

E|-----------------------------------------------------------------|
B|-----------------------------------------------------------------|
G|-----------------------------------------------------------------|
D|-----------------------------------------------------------------|
A|-0-0-0-0-0-0-0---3-3-3-3-3-3-3-3-1-1-1-1-3-3-3-3-4-4-4-4-0-0-0---|
E|-0-0-0-0-0-0-0---3-3-3-3-3-3-3-3-1-1-1-1-3-3-3-3-4-4-4-4-0-0-0---|
   1 e + a 2 e + a 3 e + a 4 e + a 1 e + a 2 e + a 3 e + a 4 e + a

E|-----------------------------------------------------------------|
B|-----------------------------------------------------------------|
G|-----------------------------------------------------------------|
D|-----------------------------------------------------------------|
A|-0-0-0-0-0-0-0-0-0-0-0---0-0-0-0-0-0-0-0-0-0-0---3-3-3-3---------|
E|-0-0-0-0-0-0-0-0-0-0-0---0-0-0-0-0-0-0-0-0-0-0---3-3-3-3---------|
   1 e + a 2 e + a 3 e + a 4 e + a 1 e + a 2 e + a 3 e + a 4 e + a


[Chorus]

E|-------------------------------------------------------------------------------------------------|
B|-------------------------------------------------------------------------------------------------|
G|-14-14-14-14-14\12-12-12-12\10-10-10-10\9--9--9--9-\7--7--7-/9--9--9--9-/10-10-10-10/12-12-12/14-|
D|-------------------------------------------------------------------------------------------------|
A|-12-12-12-12-12\10-10-10-10\8--8--8--8-\7--7--7--7-\5--5--5-/7--7--7--7-/8--8--8--8-/10-10-10/12-|
E|-------------------------------------------------------------------------------------------------|
   1  e  +  a  2  e  +  a  3  e  +  a  4  e  +  a  1  e  +  a  2  e  +  a  3  e  +  a  4  e  +  a 
  
E|-------------------------------------------------------------------------------------------------|
B|-------------------------------------------------------------------------------------------------|
G|-15-15-15-15-15\14-14-14-14\12-12-12-12\10-10-10-10\9--9--9-/10-10-10-10/12-12-12-12/14-14-14-14-|
D|-------------------------------------------------------------------------------------------------|
A|-13-13-13-13-13\12-12-12-12\10-10-10-10\8--8--8--8-\7--7--7-/8--8--8--8-/10-10-10-10/12-12-12-12-|
E|-------------------------------------------------------------------------------------------------|
   1  e  +  a  2  e  +  a  3  e  +  a  4  e  +  a  1  e  +  a  2  e  +  a  3  e  +  a  4  e  +  a 

E|-------------------------------------------------------------------------------------------------|
B|-------------------------------------------------------------------------------------------------|
G|-12-12-12-12-12\10-10-10-10\9--9--9--9-\7--7--7-/9--9--9--9-/10-10-10-10/12-12-12-12/14-14-14-14-|
D|-------------------------------------------------------------------------------------------------|
A|-10-10-10-10-10\8--8--8--8-\7--7--7--7-\5--5--5-/7--7--7--7-/8--8--8--8-/10-10-10-10/12-12-12-12-|
E|-------------------------------------------------------------------------------------------------|
   1  e  +  a  2  e  +  a  3  e  +  a  4  e  +  a  1  e  +  a  2  e  +  a  3  e  +  a  4  e  +  a 

E|-------------------------------------------------------------------------|
B|-------------------------------------------------14-14-14-14-17-17-17-17-|
G|-9-9-9-9-9-9-9-9-9-9-9-9-9-9-9-9\6-6-6-6-6-6-6-6-------------------------|
D|-------------------------------------------------11-11-11-11-14-14-14-14-|
A|-7-7-7-7-7-7-7-7-7-7-7-7-7-7-7-7\4-4-4-4-4-4-4-4-------------------------|
E|-------------------------------------------------------------------------|
   1 e + a 2 e + a 3 e + a 4 e + a 1 e + a 2 e + a 3  e  +  a  4  e  +  a


[Bridge]

E|-----------------------------------------------------------------|
B|-----------------------------------------------------------------|
G|-----------------------------------------------------------------|
D|-----------------------------------------------------------------|
A|-5---5---5---5---5---5---5---6---5---5---5---5-----------5-------|
E|---0---0---0---0---0---0---0---0---0---0---0---0-0-3-5-6---6-5-3-|
   1 e + a 2 e + a 3 e + a 4 e + a 1 e + a 2 e + a 3 e + a 4 e + a

E|-----------------------------------------------------------------|
B|-----------------------------------------------------------------|
G|-----------------------------------------------------------------|
D|-----------------------------------------------------------------|
A|-5---5---5---5---5---5---5---6---5---5---5---5-------------------|
E|---0---0---0---0---0---0---0---0---0---0---0---0---0-3-----------|
   1 e + a 2 e + a 3 e + a 4 e + a 1 e + a 2 e + a 3 e + a 4 e + a

Palm-Mute the 0's

E|-----------------------------------------------------------------|
B|-----------------------------------------------------------------|
G|-----------------------------------------------------------------|
D|-----------------------------------------------------------------|
A|-----------------------------------------------------------------|
E|-8-7-5-7-5-0-0-0-000-0-0-000-0-0-8-7-5-7-5-0-0-000-0-0-000-0-0---|
   1 e + a 2 e + a 3 e + a 4 e + a 1 e + a 2 e + a 3 e + a 4 e + a

E|-----------------------------------------------------------------|
B|-----------------------------------------------------------------|
G|-----------------------------------------------------------------|
D|-----------------------------------------------------------------|
A|-----------------------------------------------------------------|
E|-8-7-5-7-5-0-0-0-000-0-0-000-0-0-8-7-5-7-5-0-0-000-000-000-------|
   1 e + a 2 e + a 3 e + a 4 e + a 1 e + a 2 e + a 3 e + a 4 e + a

E|-----------------------------------------------------------------|
B|-----------------------------------------------------------------|
G|-----------------------------------------------------------------|
D|-----------------------------------------------------------------|
A|-----------------------------------------------------------------|
E|-8-7-5-7-5-0-0-0-000-0-0-000-0-0-8-7-5-7-5-0-0-000-0-0-000-0-0---|
   1 e + a 2 e + a 3 e + a 4 e + a 1 e + a 2 e + a 3 e + a 4 e + a

E|-----------------------------------------------------------------|
B|-----------------------------------------------------------------|
G|-----------------------------------------------------------------|
D|-----------------------------------------------------------------|
A|-------------------------------------------------------------5---|
E|-8-7-5-7-5-0-0-0--000-0-0-000-0-0-8-7-5-7-5-0-0--8-7-5-7-5-0---0-|
   1 e + a 2 e + a 3 e + a 4 e + a 1 e + a 2 e + a 3 e + a 4 e + a


[Breakdown] Palm-Mute the 0's

E|----------------------------------------------------------------|
B|----------------------------------------------------------------|
G|----------------------------------------------------------------|
D|----------------------------------------------------------------|
A|-------0-0-0-----0---0---0---0-0-0~------0---0---0---0-0-0~-----|
E|-1b----0-0-0-----0---0---0---0-0-0~------0---0---0---0-0-0~-----|
   1 e + a 2 e + a 3 e + a 4 e + a 1 e + a 2 e + a 3 e + a 4 e + a

E|-----------------------------------------------------------------|
B|-----------------------------------------------------------------|
G|-----------------------------------------------------------------|
D|-----------------------------------------------------------------|
A|-0---0---0---0-0-0---0-0-0~------------------5-----------0-0-0---|
E|-0---0---0---0-0-0---0-0-0~------8-7-5-7-5-0---0-1b------0-0-0---|
   1 e + a 2 e + a 3 e + a 4 e + a 1 e + a 2 e + a 3 e + a 4 e + a

E|----------------------------------------------------------------|
B|----------------------------------------------------------------|
G|----------------------------------------------------------------|
D|----------------------------------------------------------------|
A|-0---0---0---0-0-0~--------------0---0---0---0-0-0~-------------|
E|-0---0---0---0-0-0~--------------0---0---0---0-0-0~-------------|
   1 e + a 2 e + a 3 e + a 4 e + a 1 e + a 2 e + a 3 e + a 4 e + a

E|-----------------------------------------------------------------|
B|-----------------------------------------------------------------|
G|-----------------------------------------------------------------|
D|-----------------------------------------------------------------|
A|-0---0---0---0-0-0---0-0-0~------------------5---------0-0-0-----|
E|-0---0---0---0-0-0---0-0-0~------8-7-5-7-5-0---0-1b----0-0-0-----|
   1 e + a 2 e + a 3 e + a 4 e + a 1 e + a 2 e + a 3 e + a 4 e + a

E|----------------------------------------------------------------|
B|----------------------------------------------------------------|
G|----------------------------------------------------------------|
D|----------------------------------------------------------------|
A|-0---0---0---0-0-0~--------------0---0---0---0-0-0~-------------|
E|-0---0---0---0-0-0~--------------0---0---0---0-0-0~-------------|
   1 e + a 2 e + a 3 e + a 4 e + a 1 e + a 2 e + a 3 e + a 4 e + a

E|-----------------------------------------------------------------|
B|-----------------------------------------------------------------|
G|-----------------------------------------------------------------|
D|-----------------------------------------------------------------|
A|-0---0---0---0-0-0---0-0-0~------------------5---------------5---|
E|-0---0---0---0-0-0---0-0-0~------8-7-5-7-5-0---0-8-7-5-7-5-0---0-|
   1 e + a 2 e + a 3 e + a 4 e + a 1 e + a 2 e + a 3 e + a 4 e + a

E|-----------------------------------------------------------------|
B|-----------------------------------------------------------------|
G|-----------------------------------------------------------------|
D|-----------------------------------------------------------------|
A|-------------5---------------5---------------5---0---------------|
E|-8-7-5-7-5-0---0-8-7-5-7-5-0---0-8-7-5-7-5-0---0-0---------------|
   1 e + a 2 e + a 3 e + a 4 e + a 1 e + a 2 e + a 3 e + a 4 e + a


["The World As We Know It..."]

E|----------------------------------------------------------------|
B|----------------------------------------------------------------|
G|----------------------------------------------------------------|
D|----------------------------------------------------------------|
A|-0~--------------0---0---0---0-0-0~------0---0---0---0-0-0~-----|
E|-0~--------------0---0---0---0-0-0~------0---0---0---0-0-0~-----|
   1 e + a 2 e + a 3 e + a 4 e + a 1 e + a 2 e + a 3 e + a 4 e + a

E|-----------------------------------------------------------------|
B|-----------------------------------------------------------------|
G|-----------------------------------------------------------------|
D|-----------------------------------------------------------------|
A|-0---0---0---0-0-0---0-0-0~------0---0---0---0-0-0~--------------|
E|-0---0---0---0-0-0---0-0-0~------0---0---0---0-0-0~--------------|
   1 e + a 2 e + a 3 e + a 4 e + a 1 e + a 2 e + a 3 e + a 4 e + a

E|----------------------------------------------------------------|
B|----------------------------------------------------------------|
G|----------------------------------------------------------------|
D|----------------------------------------------------------------|
A|-0---0---0---0-0-0~--------------0---0---0---0-0-0---0-0-0~-----|
E|-0---0---0---0-0-0~--------------0---0---0---0-0-0---0-0-0~-----|
   1 e + a 2 e + a 3 e + a 4 e + a 1 e + a 2 e + a 3 e + a 4 e + a

E|---------------------------------|
B|---------------------------------|
G|---------------------------------|
D|---------------------------------|
A|-------------5---------------5---|
E|-8-7-5-7-5-0---0-8-7-5-7-5-0---0-|
   1 e + a 2 e + a 3 e + a 4 e + a 



[Solo]

E|-----------------------------------------------------------------|
B|-----------------------------------------------------------------|
G|-----------------------------------------------------------------|
C|-8-8-8-8-8-8-8-8-5-5-5-5-5-5-5-5-0-0-0-0-0-0-0-0-3-3-3-3-3-3-3-3-|
G|-8-8-8-8-8-8-8-8-5-5-5-5-5-5-5-5-0-0-0-0-0-0-0-0-3-3-3-3-3-3-3-3-|
C|-8-8-8-8-8-8-8-8-5-5-5-5-5-5-5-5-0-0-0-0-0-0-0-0-3-3-3-3-3-3-3-3-|
   1 e + a 2 e + a 3 e + a 4 e + a 1 e + a 2 e + a 3 e + a 4 e + a

E|-----------------------------------------------------------------|
B|-----------------------------------------------------------------|
G|-----------------------------------------------------------------|
C|-8-8-8-8-8-8-8-8-5-5-5-5-5-5-5-5-0-0-0-0-0-0-0-0-3-3-3-3-3-3-3-3-|
G|-8-8-8-8-8-8-8-8-5-5-5-5-5-5-5-5-0-0-0-0-0-0-0-0-3-3-3-3-3-3-3-3-|
C|-8-8-8-8-8-8-8-8-5-5-5-5-5-5-5-5-0-0-0-0-0-0-0-0-3-3-3-3-3-3-3-3-|
   1 e + a 2 e + a 3 e + a 4 e + a 1 e + a 2 e + a 3 e + a 4 e + a

E|-----------------------------------------------------------------|
B|-----------------------------------------------------------------|
G|-----------------------------------------------------------------|
C|-8-8-8-8-8-8-8-8-5-5-5-5-5-5-5-5-0-0-0-0-0-0-0-0-3-3-3-3-3-3-3-3-|
G|-8-8-8-8-8-8-8-8-5-5-5-5-5-5-5-5-0-0-0-0-0-0-0-0-3-3-3-3-3-3-3-3-|
C|-8-8-8-8-8-8-8-8-5-5-5-5-5-5-5-5-0-0-0-0-0-0-0-0-3-3-3-3-3-3-3-3-|
   1 e + a 2 e + a 3 e + a 4 e + a 1 e + a 2 e + a 3 e + a 4 e + a

E|-----------------------------------------------------------------|
B|-----------------------------------------------------------------|
G|-----------------------------------------------------------------|
C|-8-8-8-8-8-8-8-8-5-5-5-5-5-5-5-5-0-0-0-0-0-0-0-0-3-3-3-3-3-3-3-3-|
G|-8-8-8-8-8-8-8-8-5-5-5-5-5-5-5-5-0-0-0-0-0-0-0-0-3-3-3-3-3-3-3-3-|
C|-8-8-8-8-8-8-8-8-5-5-5-5-5-5-5-5-0-0-0-0-0-0-0-0-3-3-3-3-3-3-3-3-|
   1 e + a 2 e + a 3 e + a 4 e + a 1 e + a 2 e + a 3 e + a 4 e + a


[Chorus]

E|-------------------------------------------------------------------------------------------------|
B|-------------------------------------------------------------------------------------------------|
G|-14-14-14-14-14\12-12-12-12\10-10-10-10\9--9--9--9-\7--7--7-/9--9--9--9-/10-10-10-10/12-12-12/14-|
D|-------------------------------------------------------------------------------------------------|
A|-12-12-12-12-12\10-10-10-10\8--8--8--8-\7--7--7--7-\5--5--5-/7--7--7--7-/8--8--8--8-/10-10-10/12-|
E|-------------------------------------------------------------------------------------------------|
   1  e  +  a  2  e  +  a  3  e  +  a  4  e  +  a  1  e  +  a  2  e  +  a  3  e  +  a  4  e  +  a 
  
E|-------------------------------------------------------------------------------------------------|
B|-------------------------------------------------------------------------------------------------|
G|-15-15-15-15-15\14-14-14-14\12-12-12-12\10-10-10-10\9--9--9-/10-10-10-10/12-12-12-12/14-14-14-14-|
D|-------------------------------------------------------------------------------------------------|
A|-13-13-13-13-13\12-12-12-12\10-10-10-10\8--8--8--8-\7--7--7-/8--8--8--8-/10-10-10-10/12-12-12-12-|
E|-------------------------------------------------------------------------------------------------|
   1  e  +  a  2  e  +  a  3  e  +  a  4  e  +  a  1  e  +  a  2  e  +  a  3  e  +  a  4  e  +  a 

E|-------------------------------------------------------------------------------------------------|
B|-------------------------------------------------------------------------------------------------|
G|-12-12-12-12-12\10-10-10-10\9--9--9--9-\7--7--7-/9--9--9--9-/10-10-10-10/12-12-12-12/14-14-14-14-|
D|-------------------------------------------------------------------------------------------------|
A|-10-10-10-10-10\8--8--8--8-\7--7--7--7-\5--5--5-/7--7--7--7-/8--8--8--8-/10-10-10-10/12-12-12-12-|
E|-------------------------------------------------------------------------------------------------|
   1  e  +  a  2  e  +  a  3  e  +  a  4  e  +  a  1  e  +  a  2  e  +  a  3  e  +  a  4  e  +  a 

E|-------------------------------------------------------------------------|
B|-------------------------------------------------14-14-14-14-17-17-17-17-|
G|-9-9-9-9-9-9-9-9-9-9-9-9-9-9-9-9\6-6-6-6-6-6-6-6-------------------------|
D|-------------------------------------------------11-11-11-11-14-14-14-14-|
A|-7-7-7-7-7-7-7-7-7-7-7-7-7-7-7-7\4-4-4-4-4-4-4-4-------------------------|
E|-------------------------------------------------------------------------|
   1 e + a 2 e + a 3 e + a 4 e + a 1 e + a 2 e + a 3  e  +  a  4  e  +  a

E|-------------------------------------------------------------------------------------------------|
B|-------------------------------------------------------------------------------------------------|
G|-14-14-14-14-14\12-12-12-12\10-10-10-10\9--9--9--9-\7--7--7-/9--9--9--9-/10-10-10-10/12-12-12/14-|
D|-------------------------------------------------------------------------------------------------|
A|-12-12-12-12-12\10-10-10-10\8--8--8--8-\7--7--7--7-\5--5--5-/7--7--7--7-/8--8--8--8-/10-10-10/12-|
E|-------------------------------------------------------------------------------------------------|
   1  e  +  a  2  e  +  a  3  e  +  a  4  e  +  a  1  e  +  a  2  e  +  a  3  e  +  a  4  e  +  a 
  
E|-------------------------------------------------------------------------------------------------|
B|-------------------------------------------------------------------------------------------------|
G|-15-15-15-15-15\14-14-14-14\12-12-12-12\10-10-10-10\9--9--9-/10-10-10-10/12-12-12-12/14-14-14-14-|
D|-------------------------------------------------------------------------------------------------|
A|-13-13-13-13-13\12-12-12-12\10-10-10-10\8--8--8--8-\7--7--7-/8--8--8--8-/10-10-10-10/12-12-12-12-|
E|-------------------------------------------------------------------------------------------------|
   1  e  +  a  2  e  +  a  3  e  +  a  4  e  +  a  1  e  +  a  2  e  +  a  3  e  +  a  4  e  +  a 

E|-------------------------------------------------------------------------------------------------|
B|-------------------------------------------------------------------------------------------------|
G|-12-12-12-12-12\10-10-10-10\9--9--9--9-\7--7--7-/9--9--9--9-/10-10-10-10/12-12-12-12/14-14-14-14-|
D|-------------------------------------------------------------------------------------------------|
A|-10-10-10-10-10\8--8--8--8-\7--7--7--7-\5--5--5-/7--7--7--7-/8--8--8--8-/10-10-10-10/12-12-12-12-|
E|-------------------------------------------------------------------------------------------------|
   1  e  +  a  2  e  +  a  3  e  +  a  4  e  +  a  1  e  +  a  2  e  +  a  3  e  +  a  4  e  +  a 

E|-------------------------------------------------------------------------|
B|-------------------------------------------------14-14-14-14-17-17-17-17-|
G|-9-9-9-9-9-9-9-9-9-9-9-9-9-9-9-9\6-6-6-6-6-6-6-6-------------------------|
D|-------------------------------------------------11-11-11-11-14-14-14-14-|
A|-7-7-7-7-7-7-7-7-7-7-7-7-7-7-7-7\4-4-4-4-4-4-4-4-------------------------|
E|-------------------------------------------------------------------------|
   1 e + a 2 e + a 3 e + a 4 e + a 1 e + a 2 e + a 3  e  +  a  4  e  +  a


[Outro]

E|------------------------------------------------------------------|
B|------------------------------------------------------------------|
G|--------3----------------------10---------------------------------|
D|-------------------------------9----------------------------------|
A|-5-3-5-----0-0---0-00--0-00--0-8-----0-0---00------------8--------|
E|-----------0-0---0-00--0-00--0-------0-0---00--0-5-8-7-0---0-7-11-|
   1 + 2 + 3 + 4 + 1 + 2 + 3 + 4 + 1 + 2 + 3 + 4 + 1 + 2 + 3 + 4 +

E|-----------------------------------------------------------------|
B|-----------------------------------------------------------------|
G|--------3----------------------10--------------------------------|
D|-------------------------------9---------------------------------|
A|-5-3-5-----0-0---0-00--0-00--0-8-----0-0---00--------------------|
E|-----------0-0---0-00--0-00--0-------0-0---00--0-6-5-3-5-1-0-000-|
   1 + 2 + 3 + 4 + 1 + 2 + 3 + 4 + 1 + 2 + 3 + 4 + 1 + 2 + 3 + 4 +

E|-----------------|
B|-----------------|
G|-----------------|
D|-----------------|
A|-0---------------|
E|-0---------------|
   1 + 2 + 3 + 4 +




{Alternative Chorus - Actual Rhythm Guiar]

E|-----------------------------------------------------------------|
B|-----------------------------------------------------------------|
G|-----------------------------------------------------------------|
C|-0-0-0-0-0-0-0-0-0-0-0-0-0-0-0-0-0-0-0-0-0-0-0-0-0-0-0-0-0-0-0-0-|
G|-0-0-0-0-0-0-0-0-0-0-0-0-0-0-0-0-0-0-0-0-0-0-0-0-0-0-0-0-0-0-0-0-|
C|-0-0-0-0-0-0-0-0-0-0-0-0-0-0-0-0-0-0-0-0-0-0-0-0-0-0-0-0-0-0-0-0-|
   1 e + a 2 e + a 3 e + a 4 e + a 1 e + a 2 e + a 3 e + a 4 e + a

E|-----------------------------------------------------------------|
B|-----------------------------------------------------------------|
G|-----------------------------------------------------------------|
C|-8-8-8-8-8-8-8-8-8-8-8-8-8-8-8-8-8-8-8-8-8-8-8-8-8-8-8-8-8-8-8-8-|
G|-8-8-8-8-8-8-8-8-8-8-8-8-8-8-8-8-8-8-8-8-8-8-8-8-8-8-8-8-8-8-8-8-|
C|-8-8-8-8-8-8-8-8-8-8-8-8-8-8-8-8-8-8-8-8-8-8-8-8-8-8-8-8-8-8-8-8-|
   1 e + a 2 e + a 3 e + a 4 e + a 1 e + a 2 e + a 3 e + a 4 e + a

E|-----------------------------------------------------------------|
B|-----------------------------------------------------------------|
G|-----------------------------------------------------------------|
C|-5-5-5-5-5-5-5-5-5-5-5-5-5-5-5-5-5-5-5-5-5-5-5-5-5-5-5-5-5-5-5-5-|
G|-5-5-5-5-5-5-5-5-5-5-5-5-5-5-5-5-5-5-5-5-5-5-5-5-5-5-5-5-5-5-5-5-|
C|-5-5-5-5-5-5-5-5-5-5-5-5-5-5-5-5-5-5-5-5-5-5-5-5-5-5-5-5-5-5-5-5-|
   1 e + a 2 e + a 3 e + a 4 e + a 1 e + a 2 e + a 3 e + a 4 e + a

E|-----------------------------------------------------------------|
B|-----------------------------------------------------------------|
G|-----------------------------------------------------------------|
C|-7-7-7-7-7-7-7-7-7-7-7-7-7-7-7-7-7-7-7-7-7-7-7-7-7-7-7-7-7-7-7-7-|
G|-7-7-7-7-7-7-7-7-7-7-7-7-7-7-7-7-7-7-7-7-7-7-7-7-7-7-7-7-7-7-7-7-|
C|-7-7-7-7-7-7-7-7-7-7-7-7-7-7-7-7-7-7-7-7-7-7-7-7-7-7-7-7-7-7-7-7-|
   1 e + a 2 e + a 3 e + a 4 e + a 1 e + a 2 e + a 3 e + a 4 e + a



************************************

| (n)  Ghost note
| /    Slide up
| \    Slide down
Outros vídeos desta música
    15 exibições
      • ½ Tom
      • A
      • Bb
      • B
      • C
      • Db
      • D
      • Eb
      • E
      • F
      • F#
      • G
      • Ab
    • Adicionar à lista

    Afinação da cifra

    Afinador online

      0 comentários

      Ver todos os comentários

      Entre para o Cifra Club PRO

      Tenha acesso a benefícios exclusivos no App e no Site

      • Chega de anúncios

      • Badges exclusivas

      • Mais recursos no app do Afinador

      • Atendimento Prioritário

      • Aumente seu limite de lista

      • Ajude a produzir mais conteúdo

      Cifra Club Pro

      Aproveite o Cifra Club com benefícios exclusivos e sem anúncios
      Cifra Club Pro
      Aproveite o Cifra Club com benefícios exclusivos e sem anúncios
      Ops (: Contenido disponible sólo en portugués.
      OK