Cifra Club

Game Over

Falling In Reverse

Cifra: Principal (violão e guitarra)
Selo Cifra Club: esta cifra foi revisada para atender aos critérios oficiais da nossa Equipe de Qualidade.
tom: Em
E|--------------------------| |------------------------------------[NINTENC ]-----------|
B|--------------------------| |---------------------------------------------------------|
G|--12-12-11-11-10-10-9-9~~~| |---------------------5-5--7-7----------------------------|
D|--------------------------| |-5-5--5-5--2-2--2-2------------5-5----------------5-7-5--|
A|--------------------------| |------------------------------------------------7--------|
E|--------------------------| |---------------------------------------------------------|
                               * *  * *  * *  * *  * *  * *  * *              * * * *

0:20 Gtr1 (you can do 10 & 12 for the last chords at the end)
E|-------------------------------------------|
B|-------------------------------------------|
G|----------------------5-5--7-7-------------|
D|--5-5--5-5--2-2--2-2--5-5--7-7--5-5--------| x2
A|--5-5--5-5--2-2--2-2--3-3--5-5--5-5--| BASS--|
E|--5-5--5-5--2-2--2-2------------5-5--------|
Gtr2
E|-------------------------------------|----------------------15~~~17~~~19~~~-|
B|--------------------------------20~~~|--12~~~/15--15~~~/18--15~~~17~~~20~~~-|
G|--12~~~/16--16~~~/19--19~~~21~~~-----|--12~~~/16--16~~~/19------------------|
D|-------------------------------------|--------------------------------------|
A|-------------------------------------|--------------------------------------|
E|-------------------------------------|--------------------------------------|
                                        The second note may be a pitch-shifter

FUCKING PASS ASSHOLE

Pre-chorus 0:41
E|-------------------------------------------------|
B|-------------------------------------------------|
G|--12----12----12----12----14----14----14~~\\\----|
D|-----14----14----14----14----16----16-----\\\----|
A|-------------------------------------------------|
E|-------------------------------------------------|
    *  *  *  *  *  *  *  *  *  *


Chorus 0:45                                          2nd ending
E|---------------------------------------------------|-----------------------------------|
B|---------------------------------------------------|-----------------------------------|
G|-------------------------44-5-5---5-5----7-7---7-7-|-5-5-5-5-5-5-5-5-7-7-7-7-7~~\\-----|
D|--5-5---5-5-00-2-2---2-2-44-5-5---5-5-00-7-7---7-7-|-5-5-5-5-5-5-5-5-7-7-7-7-7~~\\-----|
A|--5-5---5-5-00-2-2---2-2-22-3-3---3-3-00-5-5---5-5-|-3-3-3-3-3-3-3-3-5-5-5-5-5~~\\-----|
E|--5-5---5-5-00-2-2---2-2--------------00-----------|-----------------------------------|
                                                     |
E|-----------------------------------|
B|-----------------------------------|
                                                     |-1919191917171616-1414141414141212-|
E|-x-x-x-x-x-x-x-x--x-x-x-x-x-x-x-x--|
                                                     |-1717171715151414-1212121212121010-|
E|-----------------------------------|


NOW PA Y ALL THAT AGAIN ^^^ (INTRO,VERSE, PDC HORUS, AND CHORUS)



Interlude thing 1:53
Gtr1
E|----------------------------------------------------------|
B|----------------------------------------------------------|
G|--55555-----5~--77777-----7~------------------------------|
D|--55555-----5~--77777-----7~--55555-----5~--22222--222220~|
A|--33333----x3~--55555----x5~--55555-----5~--22222--222220~|
E|------------------------------55555----x5~--22222--222220~|
Gtr2
E|----------------------------------------------------------|
B|--55555----5~---77777----7~-----------------55555--55555--|
G|--55555----5~---77777----7~---77777----7~---55555--55555--|
D|--55555----5~---77777----7~---55555----5~---55555--55555--|
A|----------------------------------------------------------|
E|----------------------------------------------------------| ..


Gtr1 2:02
E|-------------------------------------------------------------------------------------------------|
B|-------------------------------------------------------------------------------------------------|
G|--5-5-5-5-5-5-5-5-7-7-7-7-7-7-7-7---------------------------------5-5-5-5-5-5-5-5-7-7-7-7-7~~\\--|
D|--5-5-5-5-5-5-5-5-7-7-7-7-7-7-7-7-5-5-5-5-5-5-5-5-2-2-2-2-2-2-2-2-5-5-5-5-5-5-5-5-7-7-7-7-7~~\\--|
A|--3-3-3-3-3-3-3-3-5-5-5-5-5-5-5-5-5-5-5-5-5-5-5-5-2-2-2-2-2-2-2-2-3-3-3-3-3-3-3-3-5-5-5-5-5~~\\--|
E|----------------------------------5-5-5-5-5-5-5-5-2-2-2-2-2-2-2-2--------------------------------|
Gtr2
E|-------------------------------------------------------------------------------------------------|
B|-------------------------------------------------------------------------------------------------|
G|--9-9-9-9-9-9-9-9-11111111111111117-7-7-7-7-7-7-7-7-9-9-9-9-9-9-9-9-9-9-9-9-9-9-9-1111111111~\\--|
D|--x-x-x-x-x-x-x-x-x-x-x-x-x-x-x-x-x-x-x-x-x-x-x-x-x-x-x-x-x-x-x-x-x-x-x-x-x-x-x-x-x-x-x-x-x------|
A|--7-7-7-7-7-7-7-7-9-9-9-9-9-9-9-9-5-5-5-5-5-5-5-5-7-7-7-7-7-7-7-7-7-7-7-7-7-7-7-7-9-9-9-9-9~~\\--|
E|-------------------------------------------------------------------------------------------------|


Intro again 2:16
E|------------------------------------------------------------------------| B----------|
B|-------------------------------------------------------------------------| A---------|
G|---------------------5-5--7-7-----------| UP--------------------------------SELECT---|
D|-5-5--5-5--2-2--2-2------------5-5----| UP--C WN-------------------------------START-|
A|----------------------------------------------C| WN---------------------------------|
E|------------------------------------------------| LEFT--RIGHT-LEFT--RIGHT------------|
   * *  * *  * *  * *  * *  * *  * *



Chorus 3 2:27                                        2nd ending
E|---------------------------------------------------|-----------------------------------|
B|---------------------------------------------------|-----------------------------------|
G|-------------------------44-5-5---5-5----7-7---7-7-|-5-5-5-5-5-5-5-5-7-7-7-7-7-7-7-7-7-|
D|--5-5---5-5-00-2-2---2-2-44-5-5---5-5-00-7-7---7-7-|-5-5-5-5-5-5-5-5-7-7-7-7-7-7-7-7-7-|
A|--5-5---5-5-00-2-2---2-2-22-3-3---3-3-00-5-5---5-5-|-3-3-3-3-3-3-3-3-5-5-5-5-5-5-5-5-5-|
E|--5-5---5-5-00-2-2---2-2--------------00-----------|-----------------------------------| ..
                                                     |gtr2
E|-----------------------------------|
B|-----------------------------------|
                                                     |-1919191917171616-1414141414141212-|
E|-x-x-x-x-x-x-x-x--x-x-x-x-x-x-x-x--|
                                                     |-1717171715151414-1212121212121010-|
E|-----------------------------------|

2:45
E|-------------------------------------------------------------------|---|
B|-------------------------------------------------------------------|---|
G|------------------------------4-4-5-5-5-5-5-5-----7-7-7-7-7-7-7-7--|---|
D|--5-5-5-5-5-5-0-0-2-2-2-2-2-2-4-4-5-5-5-5-5-5-0-0-7-7-7-7-7-7-7-7--|-\\| x2
A|--5-5-5-5-5-5-0-0-2-2-2-2-2-2-2-2-3-3-3-3-3-3-0-0-5-5-5-5-5-5-5-5--|-\\|
E|--5-5-5-5-5-5-0-0-2-2-2-2-2-2-----------------0-0------------------|---|



3:04 outro theme
E|---------------------------|
B|-----------------15//------|
G|-11-9--11-9-11-------------|
D|---------------12----------|
A|---------------------------|
E|---------------------------|
Outros vídeos desta música
    33 exibições
      • ½ Tom
      • Am
      • Bbm
      • Bm
      • Cm
      • C#m
      • Dm
      • Ebm
      • Em
      • Fm
      • F#m
      • Gm
      • G#m
    • Adicionar à lista

    Afinação da cifra

    Afinador online

      0 comentários

      Ver todos os comentários

      Entre para o Cifra Club PRO

      Tenha acesso a benefícios exclusivos no App e no Site

      • Chega de anúncios

      • Badges exclusivas

      • Mais recursos no app do Afinador

      • Atendimento Prioritário

      • Aumente seu limite de lista

      • Ajude a produzir mais conteúdo

      Cifra Club Pro

      Aproveite o Cifra Club com benefícios exclusivos e sem anúncios
      Cifra Club Pro
      Aproveite o Cifra Club com benefícios exclusivos e sem anúncios
      Ops (: Contenido disponible sólo en portugués.
      OK