Cifra Club

Get Me Out

Falling In Reverse

Cifra: Principal (violão e guitarra)
Selo Cifra Club: esta cifra foi revisada para atender aos critérios oficiais da nossa Equipe de Qualidade.
tom: Db
E|--------------------------------------|
B|--------------------------------------|
G|--------------------------------------|
55--5-55--------22--2--22-------------|
55--5-55--x2----22--2--22--X2---------|
55--5-55--------22--2--22-------------|
**  * **        **  *  **

Take off the PM when after the gunshot sound effect

Chorus

E|-------------------------------------|
B|-------------------------------------|
G|------------5------7-----------------|
D|5-----2-----5-x8---7-x8--------------| X2
A|5-X8--2-x8--3------5-----------------|
E|5-----2------------------------------|

So sick and tired...

E|-------------------------------------|
B|-------------------------------------|
G|5-----------7------5-----7-----------|
D|5-x16-5-----7-x8---5-x16-7-x16-------|
A|3-----5-x8--5------3-----5-----------|
E|------5------------------------------|

You do that one one once and then go back to the first one


I don't know the solo but i'm working on it


Breakdown

E|--------------------------------------------|
B|--------------------------------------------|
G|--------------------------------------------|
D|--------------------------------------------|
555--55-55--x2--000 00 00--x2---------------|
555--55 55------000 00 00-------------------|
***  ** **      *** ** **

E|-----------------------------------------------|
B|-----------------------------------------------|
G|----6-------6-8----------4-------4-6-----------|
D|----x-------x-x----------x-------x-x-----------|
555-4-55-55-4-6--x2--000-2-00-00-2-4--x2-------|
555 --55-55----------000---00-00---------------|
***   ** **          ***   ** **

Final OMG

E|--------------------------------------------|
B|--------------------------------------------|
G|--------------------------------------------|
D|3-----5----7----9----10---------------------|
A|3-x8--5-x8-7-x8-9-x8-10-x4------------------|
E|3-----5----7----9----10---------------------|
*     *    *    *
Outros vídeos desta música
    18 exibições
      • ½ Tom
      • A
      • Bb
      • B
      • C
      • Db
      • D
      • Eb
      • E
      • F
      • F#
      • G
      • Ab
    • Adicionar à lista

    Afinação da cifra

    Afinador online

      0 comentários

      Ver todos os comentários

      Entre para o Cifra Club PRO

      Tenha acesso a benefícios exclusivos no App e no Site

      • Chega de anúncios

      • Badges exclusivas

      • Mais recursos no app do Afinador

      • Atendimento Prioritário

      • Aumente seu limite de lista

      • Ajude a produzir mais conteúdo

      Cifra Club Pro

      Aproveite o Cifra Club com benefícios exclusivos e sem anúncios
      Cifra Club Pro
      Aproveite o Cifra Club com benefícios exclusivos e sem anúncios
      Ops (: Contenido disponible sólo en portugués.
      OK