Cifra Club

Goodbye Graceful

Falling In Reverse

Cifra: Principal (violão e guitarra)
Selo Cifra Club: esta cifra foi revisada para atender aos critérios oficiais da nossa Equipe de Qualidade.
tom: C
Afianção: C  


Verse:               1st Ending         2nd Ending

D|---x3------------|-----------------|---------------------------------------|
A|-----------------|-----------------|---------------------------------------|
F|-----------------|-----------------|---------------------------------------|
C|-----------------|----7p5----------|-----7p5h8p5---------------------------|
G|-----------------|5h8--------------|5h8------------------------------------|
C|-0-0-0-0-0-0-0-0-|-----------------|---------------------------------------|

   . . . . . .

(Repetir o verso 4x)

                                          1st Ending      2nd Ending


D|---|---|--|-|-|----------------------|-------------|-----------------------|
A|---|---|--|-|-|----------------------|-------------|-----------------------|
F|---|---|--|-|-|----------------------|-------------|-----repeat2nd4x-------|
C|7--|8--|10|0|3|-Repeat chordtwice----|-------------|-----------------------|
G|7--|8--|10|0|3|----------------------|-------------|-----------------------|
C|7--|8--|10|0|3|----------------------|0-0-0-0-1b-0-|0-0-0-0-1b-0-----------|

                                        . . . .       . . . .

Breakdown 1:

D|--|------------------------------------------------------------------------|
A|--|------------------------------------------------------------------------|
F|--|------------------------------------------------------------------------|
C|--|------------------------------------------------------------------------|
G|0-|------------------------------------------------------------------------|
C|0-|------------------------------------------------------------------------|

  .

            2nd part of breakdown

D|---------------------------------------------------------------------------|
A|---------------------------------im not------------------------------------|
F|---------------------------------sure--about-this part---------------------|
C|8p7-7p5-5p3-7p5-8p7-----------someone--help me please----------------------|
G|---------------------------------------------------------------------------|
C|---0---0---0---0-----------------------------------------------------------|

     .   .   .   .
     Before Chorus

D|---------------------------------------------------------------------------|
A|---------------------------------------------------------------------------|
F|---------------------------------------------------------------------------|
C|---------------------------------------------------------------------------|
G|---10h12---12h13-----13h15-----15h17---17h19----19h21----------------------|
C|0-0-----0-0------0-0-------0-0-------0--------0----------------------------|

  . .     . .      . .       . .       .        .


(Repeat Chorus)


  Repeat 2x              

D|--|---|---|--|-------------------------------------------------------------|
A|--|---|---|--|-------------------------------------------------------------|
F|--|5--|---|--|5----7------8-----7------------------------------------------|
C|5-|5--|7--|8-|5----7------8-----7------------------------------------------|
G|5-|3--|7--|8-|3----5------6-----5------------------------------------------|
C|5-|---|5--|6-|-------------------------------------------------------------|


                 Then at 2:17

D|---------------------------------------------------------------------------|
A|---------------------------------------------------------------------------|
F|---------------------------------------------------------------------------|
C|0--------------------0-------------------8--9--10-9------------------------|
G|0--------------------0-------------------5--6--7--6------------------------|
C|0--------------------0-----------------------------------------------------|


                                                      YEAHHHHHHHHH!!!!!!

D|---------------------------------------------------------------------------|
A|---------------------------------------------------------------------------|
F|---------------------------------------------------------------------------|
C|---------------------------------------------------------------------------|
G|---------------------------------------------------------------------------|
C|0-0-0-0-0-12b-12b-0-12b-12b-0-12b-12b-0-0-5h8-0-0-5h8----------------------|

  . . . . .         .         .         . .     . .


D|---------------------------------------------------------------------------|
A|---------------------------------------------------------------------------|
F|---------------------------------------------------------------------------|
C|-----------------------------------------------------------8-9-10-9--------|
G|--------------------------------------------10-------11----5-6-7--6--------|
C|0-0-0-0-0-12b-12b-0-12b-12b-0-12b-12b-0-0-0----0-0-0-----------------------|

  . . . . .         .         .         . . .    . . .
            Goodbye Graceful I'm so grateful...

D|---------------------------------------------------------------------------|
A|---------------------------------------------------------------------------|
F|---------------------------------------------------------------------------|
C|---------------------------------------------------------------------------|
G|8-7-7-5-6-5-5-3-4-3-3-2-2-1-0----------------------------------------------|
C|8-7-7-5-6-5-5-3-4-3-3-2-2-1-0----------------------------------------------|

  . . . . . . . . . . . . . . .


Solo: 
         4x                              3x

D|------------13h17t22p17p13---------|-----------12h15t20p15p12--------------|
A|---------15---------------15-------|--------13----------------13-----------|
F|------14--------------------14-----|-----12---------------------12---------|
C|---15--------------------------15--|--14--------------------------14-------|
G|17-------------------------------17|15-------------------------------15----|
C|-----------------------------------|---------------------------------------|



             Depois da 3ª vez...


D|12h15p12h15p12-------------------------------------------------------------|
A|--------------13-----------------------------------------------------------|
F|----------------12---------------------------------------------------------|
C|------------------14-------------------------------------------------------|
G|--------------------15-----------------------------------------------------|
C|---------------------------------------------------------------------------|


       3x                                       3x

D|-----13h17t22p17p13------|------12h15t20p15p12-----------------------------|
A|--15---------------15----|---13---------------13---------------------------|
F|14-------------------14--|12--------------------12-------------------------|
C|-------------------------|-------------------------------------------------|
G|-------------------------|-------------------------------------------------|
C|-------------------------|-------------------------------------------------|




D|--------12h15t20p15p12---------|---------13h17t22p17p13-------13h17--------|
A|------13--------------13-------|------15----------------15--15-------------|
F|----12------------------12-----|----14--------------------14---------------|
C|--14----------------------14---|--15---------------------------------------|
G|15--------------------------15-|17-----------------------------------------|
C|-------------------------------|-------------------------------------------|


(Repetir Chorus)
(Repetir  Breakdown 7x)
Outros vídeos desta música
    246 exibições
      • ½ Tom
      • A
      • Bb
      • B
      • C
      • Db
      • D
      • Eb
      • E
      • F
      • F#
      • G
      • Ab
    • Adicionar à lista

    Afinação da cifra

    Afinador online

      0 comentários

      Ver todos os comentários

      Entre para o Cifra Club PRO

      Tenha acesso a benefícios exclusivos no App e no Site

      • Chega de anúncios

      • Badges exclusivas

      • Mais recursos no app do Afinador

      • Atendimento Prioritário

      • Aumente seu limite de lista

      • Ajude a produzir mais conteúdo

      Cifra Club Pro

      Aproveite o Cifra Club com benefícios exclusivos e sem anúncios
      Cifra Club Pro
      Aproveite o Cifra Club com benefícios exclusivos e sem anúncios
      Ops (: Contenido disponible sólo en portugués.
      OK