Cifra Club

Im Not A Hero

Falling In Reverse

Cifra: Principal (violão e guitarra)
Selo Cifra Club: esta cifra foi revisada para atender aos critérios oficiais da nossa Equipe de Qualidade.
tom: Cm
E|E|-----------------------------------------------------------------------------||
               I'M NOT A HERO (B-side) - Falling in Reverse
E|E|-----------------------------------------------------------------------------||
Tabbed by: Lucas Goldson (standbysunset on YouTube)

Tuning: Drop C (CGC)


Guitar 1 - Derek Jones
Guitar 2 - Jacky Vincent

[Intro]

Guitar 1
E|-------------------------------------------------------------|
B|-------------------------------------------------------------|
G|-------------------------------------------------------------|
D|-------------------------------------------------------------|
A|---5----5-8-5---5---5---5---5---4---5----5-8-5---5-----------|
E|-0----------------0-------3---2---0----------------0~----12\-|

[Intro Pt. 2 (both guitars)]
E|-----------------------|---------1./3.-|-------2.-|--------4.-| |
B|-----------------------|---------------|----------|-----------| |
G|-----------------------|---------------|----------|-----------| |
D|-----------------------|---------------|----------|-----------| |
A|---5----5-8-5---5---5--|-5---5---4---5-|-5-8-8-7~-|-5-8-8-7*~-| |
E|-0----------------0----|---3---2---0---|----------|-----------| |

[Verse 1]

Guitar 1
d|E|E|-----------------------------------------------------------------------------||-------------------------|
A|E|E|-----------------------------------------------------------------------------||-------------------------|
F|E|E|-----------------------------------------------------------------------------||-------------------------|
C|E|E|-----------------------------------------------------------------------------||-------------------------|
G|-0-0---0-0-0---0-0-0---0-0-0----0-7-7---7-7-7---7-7-7---7-7-7---7-3-3---3-3-3---3-3-3--3-3-3---3-7-7--|
C|-0-0---0-0-0---0-0-0---0-0-0----0-7-7---7-7-7---7-7-7---7-7-7---7-3-3---3-3-3---3-3-3--3-3-3---3-7-7--|
   * *   * * *   * * *   * * *    * * *   * * *   * * *   * * *   * * *   * * *   * * *  * * *   * * *  
d|E|E|-----------------------------------------------------------------------------||------------------|
A|E|E|-----------------------------------------------------------------------------||------------------|
F|E|E|-----------------------------------------------------------------------------||------------------|
C|-----------5--5--3-5-7~------------------------------------------------------------------------|
G|-7-7-7---7---------------0--0---------0--0-0-0---------0--0-7--7--------7---7-7-7---------7--7-|
C|-7-7-7---7---------------0--0---0-0-0-0--0-0-0---0-0-0-0--0-7--7--7-7-7-7---7-7-7---7-7-7-7--7-|
   * * *   *                      * * *            * * *            * * *             * * *
E|------------------------------------------------------------------------|
B|------------------------------------------------------------------------|
G|------------------------------------------------------------------------|
D|--------------------------------------------------------------3-5/7~----|
A|-3--3--------3---3-3-3---------3--3-7--7--------7---7-4p0-4p0-----------|
E|-3--3--3-3-3-3---3-3-3---3-3-3-3--3-7--7--7-7-7-7---7-------------------|
         * * *             * * *            * * *
E|--------------------------------------------------|
B|--------------------------------------------------|
G|--------------------------------------------------|
D|------------------------------------------3~-/7~--|
A|--------------------------------------------------|
E|-8~--8-10-10~---7~--7-7-5-7-8~---8-10-7~----------|

Guitar 2
d|--------------------------------------------13--x25-15151515-12--x16---------13--x16-17--x16-21-x8-21b22~-|
A|---------------------------------------------------------------------14--x16------------------------------|
F|E|E|-----------------------------------------------------------------------------||-----------------------------|
C|E|E|-----------------------------------------------------------------------------||-----------------------------|
G|-----------------------------4--4--4-5-7~\----------------------------------------------------------------|
C|-0-x32-7--x32-3--x16-7--x16E|E|-----------------------------------------------------------------------------||--|

d|E|E|-----------------------------------------------------------------------------||-----|
A|E|E|-----------------------------------------------------------------------------||-----|
F|-10~-10/12-12~---9~--6-6-2-6/10~--10/12-9~----------------------------------------|
C|E|E|-----------------------------------------------------------------------------||-----|
G|-8~--8-/10-10~---7~--4-4-0-4/8~---8-/10-7~--8~/12~---5----5-8-5---5---5---5---5~\-|
C|---------------------------------------------------0----------------0-------3-----|

[Chorus]

Guitar 1
E|-----------------------------------------------------------------------|
B|-----------------------------------------------------------------------|
G|-----------------------------------------------------------------------|
D|-------------------------------------------------------------------0---|
A|---5---5-8-5---5---5---5---5---4---5---5-8-5---5---5---5---5---4-1-----|
E|-0---------------0-------3---2---3---------------3-------3---2---------|

E|------------------------------------------------------|
B|------------------------------------------------------|
G|------------------------------------------------------|
D|------------------------------------------------------|
A|-5-8-5---5-1-5---5-8-8-7~-4-4--4-0-4---4-7-7--7-4-5-7-|
E|------------------------------------------------------|

Guitar 2
d|E|E|-----------------------------------------------------------------------------||--------------------------|
A|-6-6-6-6-6-6-6-6-6-6-6-6-10-10-8-8-8-6-6-6-6-6-6-6-6-6-6-6-8-8-6------8------11-11-11-11-11-11-11-11~\-|
F|-7-7-7-7-7-7-7-7-7-7-7-7-10-10-9-9-7-7-7-7-7-7-7-7-7-7-7-7-9-9-7--x16-9--x16-12-12-12-12-12-12-12-12~\-|
C|E|E|-----------------------------------------------------------------------------||--------------------------|
G|E|E|-----------------------------------------------------------------------------||--------------------------|
C|E|E|-----------------------------------------------------------------------------||-----------------------2x-|

[Verse 2]

Guitar 1
d|E|E|-----------------------------------------------------------------------------||-------------------------|
A|E|E|-----------------------------------------------------------------------------||-------------------------|
F|E|E|-----------------------------------------------------------------------------||-------------------------|
C|E|E|-----------------------------------------------------------------------------||------------5--5--3-5-7~-|
G|-00---000---000---000----0-77---777---777---777---7-33---333---333--333---3-77---777---7--------------|
C|-00---000---000---000----0-77---777---777---777---7-33---333---333--333---3-77---777---7--------------|
   **   ***   ***   ***    * **   ***   ***   ***   * **   ***   ***  ***   * **   ***   *
d|E|E|-----------------------------------------------------------------------------||-----------------------------|
A|E|E|-----------------------------------------------------------------------------||-----------------------------|
F|E|E|-----------------------------------------------------------------------------||-----------------------------|
C|-0~-0-0-0~-0-0-0~-0-0-0~-0-0-0~-0-0-0~-0-0-0~-7-7-7~-7-7-7~-7-7-7~-7-7-7~-7-7-7~-7-7-7~-7p0h7p0h2h3p0h2---|
G|E|E|-----------------------------------------------------------------------------||-----------------------------|
C|E|E|-----------------------------------------------------------------------------||-----------------------------|
   *  * * *  * * *  * * *  * * *  * * *  * * *  * * *  * * *  * * *  * * *  * * *  * * *  
d|E|E|-----------------------------------------------------------------------------||-------------------------|
A|E|E|-----------------------------------------------------------------------------||-------------------------|
F|E|E|-----------------------------------------------------------------------------||-------------------------|
C|-3~-3-3-3~-3-3-3~-3-3-3~-3-3-3~-3-3-3~-3-3-3~-7p0h7p0h2h3p0h3-2~-2-2-2~-2-2-2~-2-2-2~---------3-5-7~--|
G|E|E|-----------------------------------------------------------------------------||---------4p0-4p0---------|
C|E|E|-----------------------------------------------------------------------------||-------------------------|
   *  * * *  * * *  * * *  * * *  * * *  * * *                  *  * * *  * * *  * * * 
E|-------------------------------------------------------------------------|
B|---------------------------------------------------8-11~-----------------|
G|-----------------------------------------------6-9-----------------------|
D|-------------------------------------------7-8---------------------------|
A|-----------------------------------------7-------------------------------|
E|-8~--8-10-10~---7~--7-7-5-7-8~---8-10-7~---------------------------------|

Guitar 2
d|--------------------------------------------13--x25-15151515-12--x16---------13--x16-17--x16-21-x8-21b22~-|
A|---------------------------------------------------------------------14--x16------------------------------|
F|E|E|-----------------------------------------------------------------------------||-----------------------------|
C|E|E|-----------------------------------------------------------------------------||-----------------------------|
G|----------------------------4--4--4-5-7~\-----------------------------------------------------------------|
C|-0-x32-7--x32-3--x16-7--x16E|E|-----------------------------------------------------------------------------||--|

E|-----------------------------------------------------------|
B|------------------------------------------------------8~---|
G|-10~-10/12-12~---9~--6-6-2-6/10~--10/12-9~--------6-9------|
D|----------------------------------------------5-7----------|
A|-8~--8-/10-10~---7~--4-4-0-4/8~---8-/10-7~--4--------------|
E|-----------------------------------------------------------|

[Chorus]

Guitar 1
E|-----------------------------------------------------------------------|
B|-----------------------------------------------------------------------|
G|-----------------------------------------------------------------------|
D|-------------------------------------------------------------------0---|
A|---5---5-8-5---5---5---5---5---4---5---5-8-5---5---5---5---5---4-1-----|
E|-0---------------0-------3---2---3---------------3-------3---2---------|

E|------------------------------------------------------|
B|------------------------------------------------------|
G|------------------------------------------------------|
D|------------------------------------------------------|
A|-5-8-5---5-1-5---5-8-8-7~-4-4--4-0-4---4-7-7--7-4-5-7-|
E|------------------------------------------------------|

Guitar 2
d|E|E|-----------------------------------------------------------------------------||--------------------------|
A|-6-6-6-6-6-6-6-6-6-6-6-6-10-10-8-8-8-6-6-6-6-6-6-6-6-6-6-6-8-8-6------8------11-11-11-11-11-11-11-11~\-|
F|-7-7-7-7-7-7-7-7-7-7-7-7-10-10-9-9-7-7-7-7-7-7-7-7-7-7-7-7-9-9-7--x16-9--x16-12-12-12-12-12-12-12-12~\-|
C|E|E|-----------------------------------------------------------------------------||--------------------------|
G|E|E|-----------------------------------------------------------------------------||--------------------------|
C|E|E|-----------------------------------------------------------------------------||-----------------------2x-|

[G  O]

Guitar 1
d|E|E|-----------------------------------------------------------------------------||-----------------------------|
A|E|E|-----------------------------------------------------------------------------||-----------------------------|
F|-3E|E|-----------------------------------------------------------------------------||---------------------------|
C|-3--x16-5------8------10-----11-11-11-11------0~--------0~-------0~---------------------------------------|
G|-1------5--x16-8--x16-10--x8-12-12-12-12------0~--------0~-------0~--0-------0-------0-3-0---0-3-0-3-0-0~-|
C|--------5------8------10-----11-11-11-11-14~\-0~---000--0~----12\0~--0-000---0-000---0-3-0---0-3-0-3-0-0~-|
                                                     ***                 ***     ***
d|E|E|-----------------------------------------------------------------------------||----------------------|
A|E|E|-----------------------------------------------------------------------------||----------------------|
F|E|E|-----------------------------------------------------------------------------||----------------------|
C|E|E|-----------------------------------------------------------------------------||-------------------0~-|
G|-0-------0-------0-3-3-3-3~---3-------3-------3-----3-3-8~---8-------8-12-12-12---12------------0~-|
C|-0-000---0-000---0-3-3-3-3~---3-333---3-333---3-333-3-3-8~---8-888---8-11-11-11---11-14-14-14~\-0~-|
     ***     ***                  ***     ***     ***            ***
Guitar 2 & 3
E|-----------------------------|----------------------------------|--------------------| |
B|-10-10-10~-10-10-10-8~-6~-8~-|-10-10-10-10-10-10-10-8~-6~-8~-3~-|-/10~-8~--8-/10~-8~-| |
G|-10-10-10~-10-10-10-9~-7~-9~-|-10-10-10-10-10-10-10-9~-7~-9~-3~-|-/10~-9~--9-/10~-9~-| |
D|-----------------------------|----------------------------------|--------------------| |
A|-----------------------------|----------------------------------|--------------------| |
E|-----------------------------|-------------------------------1.-|-----------------2.-| |

E|----------------------------------------------------------------------4x-|
B|-------------------------------------------------------------------------|
G|-------------------------------------------------------------------------|
C|-t19p12p0-t19p12p0-t20p12p0-t20p12p0-t17p12p0-t17p12p0-t19p12p0-t19p12p0-|
E|-------------------------------------------------------------------------|
B|-------------------------------------------------------------------------|
 
Guitar 3 Harmony to above bar
E|----------------------------------------------------------------------2x-|
B|-------------------------------------------------------------------------|
G|-------------------------------------------------------------------------|
C|-t15p10p5-t15p10p5-t17p10p5-t17p10p5-t14p10p5-t14p10p5-t15p10p5-t15p10p5-|
E|-------------------------------------------------------------------------|
B|-------------------------------------------------------------------------|

[Final Chorus]

Guitar 1
E|-------------------------------------------------------------------|
B|-------------------------------------------------------------------|
G|-------------------------------------------------------------------|
D|-------------------------------------------------------------------|
A|---5----5---5---5---5---5---5---4---5----5-8-5----5---5---5---5~\--|
E|-0--------0-------0-------3---2---0-----------------3-------3------|

d|E|E|-----------------------------------------------------------------------------||----------------------|
A|E|E|-----------------------------------------------------------------------------||----------------------|
F|E|E|-----------------------------------------------------------------------------||----------------------|
C|----------------------------------------------------------------------0----------------------------|
G|---5----5-8-5---5---5---5---5---4---5----5-8-5----5---5---5---5---4-1-----5-8-5---5-1-5---5-8-8-7~-|
C|-0----------------0-------3---2---3-----------------3-------3---2----------------------------------|

E|----------------------------1.-|---------------------------2.-| |
B|-------------------------------|------------------------------| |
G|-------------------------------|------------------------------| |
D|-------------------------------|--------------------7-3-5-7~\-| |
A|-4-4--4-0-4---4-7-7--7-4-5-7~\-|-4-4--4-0-4---4-7-7-----------| |
E|-------------------------------|------------------------------| |

Guitar 2
d|E|E|-----------------------------------------------------------------------------||--------------------------|
A|-6-6-6-6-6-6-6-6-6-6-6-6-10-10-8-8-8-6-6-6-6-6-6-6-6-6-6-6-8-8-6------8------11-11-11-11-11-11-11-11~\-|
F|-7-7-7-7-7-7-7-7-7-7-7-7-10-10-9-9-7-7-7-7-7-7-7-7-7-7-7-7-9-9-7--x16-9--x16-12-12-12-12-12-12-12-12~\-|
C|E|E|-----------------------------------------------------------------------------||--------------------------|
G|E|E|-----------------------------------------------------------------------------||--------------------------|
C|E|E|-----------------------------------------------------------------------------||--------------------------|

[Outro]

Guitar 1
E|---------------------------------|----------------------------------|
B|---------------------------------|----------------------------------|
G|---------------------------------|----------------------------------|
D|---------------------------------|----------------------------------|
A|---5~--5-8-5~--5---5~--5---5---4-|---5~--5-8-5~--5---5~---5---5-----|
E|-0---------------0-------3---2---|-0---------------0--------3---2p0-|

Guitar 2
E|----------------------------------|---------------------------------|
B|----------------------------------|---------------------------------|
G|----------------------------------|---------------------------------|
D|----------7-----------------------|---------7-----------------------|
A|---8~---8---8~--8---8~--8---8---7-|---8~--8---8~--8---8~--8---8-----|
E|-0----------------0-------7---5---|-0---------------0-------7---5p0-|
E|----------------------------------------------------------------------------------------------------------|
* - palm mute
/ or \ - slide
h - hammer on
p - pull off
~ - let note ring
x - mute note
Outros vídeos desta música
    5 exibições
      • ½ Tom
      • Am
      • Bbm
      • Bm
      • Cm
      • C#m
      • Dm
      • Ebm
      • Em
      • Fm
      • F#m
      • Gm
      • G#m
    • Adicionar à lista

    Afinação da cifra

    Afinador online

      0 comentários

      Ver todos os comentários

      Entre para o Cifra Club PRO

      Tenha acesso a benefícios exclusivos no App e no Site

      • Chega de anúncios

      • Badges exclusivas

      • Mais recursos no app do Afinador

      • Atendimento Prioritário

      • Aumente seu limite de lista

      • Ajude a produzir mais conteúdo

      Cifra Club Pro

      Aproveite o Cifra Club com benefícios exclusivos e sem anúncios
      Cifra Club Pro
      Aproveite o Cifra Club com benefícios exclusivos e sem anúncios
      Ops (: Contenido disponible sólo en portugués.
      OK