Cifra Club

I'm Not a Vampire

Falling In Reverse

Cifra: Principal (violão e guitarra)
tom: G
Afinação: Drop D (D A D G B e)

A cifra base eu conseguir fazer... mas o solo eu não achei na afinação Drop D (D A D G B e)... então eu recomendo adicionar duas casas na base inteira, menos o solo principal . E o nome das cordas da base e do solo final tá invertido. Desculpe!

Intro: Guitarra Base
            |-3x--|         |-3x--|         |-3x--|         |-3x--|

D|- --0-0-x--0-0-0-x--5-5-x--5-5-5-x--8-8-x--8-8-8-x--7-7-x--7-7-7-x
A|- --0-0-x--0-0-0-x--5-5-x--5-5-5-x--8-8-x--8-8-8-x--7-7-x--7-7-7-x
B|- --0-0-x--0-0-0-x--5-5-x--5-5-5-x--8-8-x--8-8-8-x--7-7-x--7-7-7-x
G|- ----------------------------------------------------------------
D|- ----------------------------------------------------------------
E|- ----------------------------------------------------------------


Intro: Guitarra Solo (depois de fazer 1 vez a base)

D|- ------------------------------------------------------------
A|- ------------------------------------------------------------
D|- ------------------------------------------------------------
G|- ---------------12-10-12~--/12--12-10-12-10-12-10-12-10-12-10
B|- ---12b---10b------------------------------------------------
E|- ---10b---8b-------------------------------------------------

D|- ---------------------------
A|- ---------------------------
D|- ---------------------------
G|- -12-10-12b13r12-9~--9--9\6~
B|- ---------------------------
E|- ---------------------------

Primeira Parte:
            |-3x--|         |-3x--|           |-3x--|

D|- --0-0-x--0-0-0-x-0-5-5-x--5-5-5-x-5-8-8-x--8-8-8-x
A|- --0-0-x--0-0-0-x-0-5-5-x--5-5-5-x-5-8-8-x--8-8-8-x
B|- --0-0-x--0-0-0-x-0-5-5-x--5-5-5-x-5-8-8-x--8-8-8-x
G|- --------------------------------------------------
D|- --------------------------------------------------
E|- --------------------------------------------------

             |-3x--|
D|- -8-7-7-x--7-7-7-x   
A|- -8-7-7-x--7-7-7-x
D|- -8-7-7-x--7-7-7-x
B|- -----------------
G|- -----------------
E|- -----------------

Well I'm not a vampire
But I feel like one
Sometimes I sleep all day
Because I hate the sunlight
My hands are always shaking
Bodies always aching
In the darkness when I feed
Well I can lure any woman that I want to in my bed
With me

Segunda Parte:
D|- -------0--2-3---------------
A|- -1--3--0--2-3---1--3--0--1-3
D|- -3--5--0--2-3---3--5--2--3-5
G|- -3--5-----------3--5--2--3-5
B|- ----------------------------
E|- ----------------------------

And Whiskey seems to be my Holy Water
Mothers better lock your doors
And hide your daughters

Refrão:
            |-3x--|         |-3x--|         |-3x--|         |-3x--|

D|- --0-0-x--0-0-0-x--5-5-x--5-5-5-x--8-8-x--8-8-8-x--7-7-x--7-7-7-x
A|- --0-0-x--0-0-0-x--5-5-x--5-5-5-x--8-8-x--8-8-8-x--7-7-x--7-7-7-x
B|- --0-0-x--0-0-0-x--5-5-x--5-5-5-x--8-8-x--8-8-8-x--7-7-x--7-7-7-x
G|- ----------------------------------------------------------------
D|- ----------------------------------------------------------------
E|- ----------------------------------------------------------------

I'm insane!
Well, I can feel it in my bones!
Coursing through my veins!
When did I become so cold?
For goodness sake!
Where is my self control?
If home is where my heart is
Then my heart has lost all hope

[Intro base apenas 1x]

            |-3x--|         |-3x--|           |-3x--|

D|- --0-0-x--0-0-0-x-0-5-5-x--5-5-5-x-5-8-8-x--8-8-8-x
A|- --0-0-x--0-0-0-x-0-5-5-x--5-5-5-x-5-8-8-x--8-8-8-x
B|- --0-0-x--0-0-0-x-0-5-5-x--5-5-5-x-5-8-8-x--8-8-8-x
G|- --------------------------------------------------
D|- --------------------------------------------------
E|- --------------------------------------------------

             |-3x--|
D|- -8-7-7-x--7-7-7-x
A|- -8-7-7-x--7-7-7-x    Logo depois dessa a parte o vocal entra.
D|- -8-7-7-x--7-7-7-x
B|- -----------------
G|- -----------------
E|- -----------------

Primeira parte com alteração na letra:

            |-3x--|         |-3x--|           |-3x--|

D|- --0-0-x--0-0-0-x-0-5-5-x--5-5-5-x-5-8-8-x--8-8-8-x
A|- --0-0-x--0-0-0-x-0-5-5-x--5-5-5-x-5-8-8-x--8-8-8-x
B|- --0-0-x--0-0-0-x-0-5-5-x--5-5-5-x-5-8-8-x--8-8-8-x
G|- --------------------------------------------------
D|- --------------------------------------------------
E|- --------------------------------------------------

             |-3x--|
D|- -8-7-7-x--7-7-7-x   
A|- -8-7-7-x--7-7-7-x
D|- -8-7-7-x--7-7-7-x
B|- -----------------
G|- -----------------
E|- -----------------

Well I'm not a zombie
But I feel like one today!
Sell me pills, Comatose!
Chemical daze!
My head is always spinning
From this dizzy blurry vision
And my stomach has had enough!
I feel like a lady
That is pregnant with a baby
Cause I'm always throwing up! *blehh*

Segunda Parte com alteração na letra:
D|- -------0--2-3---------------
A|- -1--3--0--2-3---1--3--0--1-3
D|- -3--5--0--2-3---3--5--2--3-5
G|- -3--5-----------3--5--2--3-5
B|- ----------------------------
E|- ----------------------------

Hi, My name is Ronnie!
I'm an addict!
(Hi, Ronnie!)
Daddy should've never raised me on Black Sabbath!

Refrão:
            |-3x--|         |-3x--|         |-3x--|         |-3x--|

D|- --0-0-x--0-0-0-x--5-5-x--5-5-5-x--8-8-x--8-8-8-x--7-7-x--7-7-7-x
A|- --0-0-x--0-0-0-x--5-5-x--5-5-5-x--8-8-x--8-8-8-x--7-7-x--7-7-7-x
B|- --0-0-x--0-0-0-x--5-5-x--5-5-5-x--8-8-x--8-8-8-x--7-7-x--7-7-7-x
G|- ----------------------------------------------------------------
D|- ----------------------------------------------------------------
E|- ----------------------------------------------------------------
I'm insane!
Well, I can feel it in my bones!
Coursing through my veins!
When did I become so cold?
For goodness sake!
Where is my self control?
If home is where my heart is
Then my heart has lost all hope



Solo principal:
D|-------------------|------------------|--------------------------------|
A|-------------------|------------------|--12--12--10--12--8--12--7--12--|
F|--9--12--11--12--x4|--8--11--9--11--x2|--------------------------------|
C|-------------------|------------------|--------------------------------|
G|-------------------|------------------|--------------------------------|
C|-------------------|------------------|--------------------------------|

D|-------------------|--------------11--14--11--------------------------------------|
A|--8--12--10--12-x4-|----------13--------------13--------------15--13--12----------|
F|-------------------|--11--14----------------------14--11--14--------------14--11--|
C|-------------------|--------------------------------------------------------------|
G|-------------------|--------------------------------------------------------------|
C|-------------------|--------------------------------------------------------------|
D|-------------------|----------------------------------------|
A|-------------------|----------------------------------------|
F|--9--12--11--12--x4|--9--11--12--8--9--11--11--12--14--16*--|
C|-------------------|----------------------------------------|
G|-------------------|----------------------------------------|
C|---------------
----|----------------------------------------|

D|------------------|----------------------------------------|
A|------------------|----------------------------------------|
F|--8--11--9--11--x4|--8--9--11--9--11--12--11--12--14--16*--|
C|------------------|----------------------------------------|
G|------------------|----------------------------------------|
C|------------------|----------------------------------------|

D|-----------------|--5-----------5--8--5-----------5--8/11--8-|
A|--8--12--10--12--|-----7-----7-----------7-----7-------------|
F|-----------------|--------8-----------------8----------------|
C|-----------------|-------------------------------------------|
G|-----------------|-------------------------------------------|
C|-----------------|-------------------------------------------|

D|-------------8/14--11--------------11--14--|
A|-10------10------------13------13----------|
F|-----11--------------------14--------------|
C|-------------------------------------------|
G|-------------------------------------------|
C|-------------------------------------------|

D|--20--17------17----------------------------------|
A|----------19------19------19----------------------|
F|----------------------20------20--17--20--17------|
C|----------------------------------------------19--|
G|--------------------------------------------------|
C|--------------------------------------------------|

D|-----------------17h20p17------17h20p17-------------------------|
A|-------------19------------19------------19---------------------|
F|------17h20----------------------------------20p17--------------|
C|--19------------------------------------------------19------17~~|
G|--------------------------------------------------------21------|
C|----------------------------------------------------------------|

Pós-Solo:
D|- -------------       D- ---------------
A|- -8--8--8--7-5       A- -12-12-12-10-8-
D|- ------------- 
G|- -10-10-10-9-7       G- -14-14-14-12-10
B|- -------------       B- ---------------
E|- -------------       e- ---------------

|-------------------------------------------------|

        Toda a parte acima se repete 2x




God bless all of you now!
Cause I'm going straight to Hell!
And I'm taking you down with me!
Cause you know damn well,

Refrão Incompleto:
D|- --0-0-x--x--x--x---5-5-x--x--x--x---8-8-x--x--x--x---7-7--x--x--0-5-8-7
A|- --0-0-x--x--x--x---5-5-x--x--x--x---8-8-x--x--x--x---7-7--x--x--0-5-8-7
D|- --0-0-x--x--x--x---5-5-x--x--x--x---8-8-x--x--x--x---7-7--x--x--0-5-8-7
G|- -----------------------------------------------------------------------
B|- -----------------------------------------------------------------------
E|- -----------------------------------------------------------------------

I'm insane!
Well, I can feel it in my bones!
Coursing through my veins!
When did I become so cold?

Refrão:
            |-3x--|         |-3x--|         |-3x--|         |-3x--|

D|- --0-0-x--0-0-0-x--5-5-x--5-5-5-x--8-8-x--8-8-8-x--7-7-x--7-7-7-x
A|- --0-0-x--0-0-0-x--5-5-x--5-5-5-x--8-8-x--8-8-8-x--7-7-x--7-7-7-x
B|- --0-0-x--0-0-0-x--5-5-x--5-5-5-x--8-8-x--8-8-8-x--7-7-x--7-7-7-x
G|- ----------------------------------------------------------------
D|- ----------------------------------------------------------------
E|- ----------------------------------------------------------------

I'm insane!
Well, I can feel it in my bones!
Coursing through my veins!
When did I become so cold?
For goodness sake!
Where is my self control?
If home is where my heart is
Then my heart has lost all hope

Solo Final:
D|- --------------------------------------------------
A|- --------------------------------------------------
D|- --------------------------------------------------
G|- --------------------------------------------------
B|- --/15~--17-18-15~--17-18-15~--14~--14--15--17---18\
E|- --------------------------------------------------


Whoa... oh uh oh... oh uh oh... oh... oh uh oh... oh!
00:00 / 00:00
Outros vídeos desta música
Repetir
Outros vídeos desta música
Composição de David Holdredge / Michael Baskette / Ronnie Radke
Colaboração e revisão:
  • Tiago Rodrigues
  • Caique Fagones'
12.795 exibições
    • ½ Tom
    • A
    • Bb
    • B
    • C
    • Db
    • D
    • Eb
    • E
    • F
    • F#
    • G
    • Ab
  • Adicionar à lista

    0 comentários

    Ver todos os comentários

    Entre para oCifra Club PRO

    Tenha acesso a benefícios exclusivos no App e no Site

    • Chega de anúncios

    • Prioridade de compra em lançamentos

    • Mais recursos no app do Afinador

    • Atendimento Prioritário

    • Descontos nos produtos Cifra Club

    • Ajude a produzir mais conteúdo

    00:00 / 00:00

    Cifra Club Pro

    Aproveite o Cifra Club com benefícios exclusivos e sem anúncios
    Cifra Club Pro
    Aproveite o Cifra Club com benefícios exclusivos e sem anúncios
    OK