Cifra Club

Raised By Wolves

Falling In Reverse

Cifra: Principal (violão e guitarra)
Selo Cifra Club: esta cifra foi revisada para atender aos critérios oficiais da nossa Equipe de Qualidade.
tom: C
Intro
     ...............       .    .     .           .
D|-----------------------------------------------------------------------------|
A|-----------------------------------------------------------------------------|
F|-----------------------------------------------------------------------------|
C|----9--5--7--5--9---7-99--9--55-5-77-7--5-44-99--9---------------------------|
G|----7--3--5--3--7---5-77--7--33-3-55-5--3-22-77--7---------------------------|
C|-----------------------------------------------------------------------------|

Pre-Chorus |
D|-----------------------------------------------------------------------------|
A|-----------------------------------------------------------------------------|
F|-----------------------------------------------------------------------------|
C|-----2-4-5-7--55-5--555--5-------9-7-578-11----------------------------------|
G|-----2-4-5-7--33-3--333--3-------7-5-356-9-----------------------------------|
C|-----2-4-5-7-----------------------------------------------------------------|

second guitar
D|-----------------------------------------------------------------------------|
A|----17-15-12-15-17-19------17-15-12-15---------------------------------------|
F|----------------------------------------8--11--------------------------------|
C|-----------------------------------------------------------------------------|
G|----------------------------------------6--9---------------------------------|
C|-----------------------------------------------------------------------------|

Chorus
D|-----------------------------------------------------------------------------|
A|-----------------------------------------------------------------------------|
F|-----------------------------------------------------------------------------|
C|-----5-4--2-4-5--5-7--2--4--5---5-4--7--9----5--8/11-------------------------|
G|-----3-2--2-4-5--3-5--2--4--5---3-2--5--7----3--6/9--------------------------|
C|----------2-4-5-------2--4--5------------------------------------------------|

Post-Chorus
D|-----------------------------------------------------------------------------|
A|-----------------------------------------------------------------------------|
F|-----------------------------------------------------------------------------|
C|---2--0--2--4--2-4-54-5--7--5--4---------------------------------------------|
G|---2--0--2--4--2-4-54-5--7--5--4---(silence)---------------------------------|
C|---2--0--2--4--2-4-54-5--7--5--4---------------------------------------------|

                                                (Change of rythm!!!)
    ...      ...   ..  ..               ...       ...   ...   .. .          .
D|-----------------------------------------------------------------------------|
A|-----------------------------------------------------------------------------|
F|-----------------------------------------------------------------------------|
C|-2-222----5-555-7-77-5-55------------2-222--0--2-222-5-555-7-77-5----------2-|
G|-2-222----3-333-5-55-3-33---5-3------2-222--0--2-222-5-555-5-55-5--5-3-----2-|
C|-2-222---------------------------6-2-2-222--0--2-222-5-555------5------6-2-2-|



second guitar
                      .....            3x
D|--------------------------------------------!-----------------------|
A|--------------------------------------------!-----------------------|
F|---------------12----------12---12----------!--------------14-16v---|
C|----------14-12---14-141414---14--14-12-----!---14-16-17------------|
G|----------------------------------------14--!-----------------------|
C|--------------------------------------------!-----------------------|



Pre-Chorus
D|-----------------------------------------------------------------------------|
A|-----------------------------------------------------------------------------|
F|-----------------------------------------------------------------------------|
C|-----2-4-5-7--55-5--555--5-------9-7-578-11----------------------------------|
G|-----2-4-5-7--33-3--333--3-------7-5-356-9-----------------------------------|
C|-----2-4-5-7-----------------------------------------------------------------|

Chorus
D|-----------------------------------------------------------------------------|
A|-----------------------------------------------------------------------------|
F|-----------------------------------------------------------------------------|
C|-----5-4--2---4-5--5-7--2--4--5---5-4--7--9----5--8/11-----------------------|
G|-----3-2--2---4-5--3-5--2--4--5---3-2--5--7----3--6/9------------------------|
C|----------2---4-5-------2--4--5----------------------------------------------|

Breakdown
   .. ..  . .      ..    ..  ........
D|-----------------------------------------------------------------------------|
A|-----------------------------------------------------------------------------|
F|------------------77---------------------------------------------------------|
C|--22-77--1212-----77----55---------------------------------------------------|
G|--22-77--1212-(or 55-)--55--11-11-11(not eleven but 1's )--------------------|
C|--22-77--1212-----------55--11-11-11-----------------------------------------|


Breakdown 2  ...             ...
D|-----------------------------------------------------------------------------|
A|-----------------------------------------------------------------------------|
F|-----------------------------------------------------------------------------|
C|------2---2-----3-2-1-2---2-----3-2-1----------------------------------------|
G|------2---2-222-3-2-1-2---2-222-3-2-1----------------------------------------|
C|------2h3p2-222-3-2-1-2h3p2-222-3-2-1----------------------------------------|

Second guitar
D|-----------------------------------------------------------------------------|
A|-------17-17-17-171717-17-17--17---------------------------------------------|
F|-------21-22-21-21212--22-21--20---------------------------------------------|
C|-----------------------------------------------------------------------------|
G|-----------------------------------------------------------------------------|
C|-----------------------------------------------------------------------------|

Pre-Chorus 2
D|-----------------------------------------------------------------------------|
A|-----------------------------------------------------------------------------|
F|------5-4--------------------------------------------------------------------|
C|------5-4--2-4-5-------------------------------------------------------------|
G|------3-2--2-4-5---(silence)-------------------------------------------------|
C|-----------2-4-5-------------------------------------------------------------|

Outro-Chorus
D|-----------------------------------------------------------------------------|
A|-----------------------------------------------------------------------------|
F|-----------------------------------------------------------------------------|
C|-----5-4--2--4-5--5-7--2--4--5---5-4--7--9----5--7--9--11--------------------|
G|-----3-2--2--4-5--3-5--2--4--5---3-2--5--7----3--5--7--9---------------------|
C|----------2--4-5-------2--4--5-----------------------------------------------|

Outro       ..........       ........
D|-----------------------------------------------------------------------------|
A|-----------------------------------------------------------------------------|
F|-----------------------------------------------------------------------------|
C|------2---2-----3-2-1-2---2-----3-2-1----------------------------------------|
G|------2---2-222-3-2-1-2---2-222-3-2-1----------------------------------------|
C|------2h3p2-222-3-2-1-2h3p2-222-3-2-1----------------------------------------|


D|-----------------------------------------------------------------------------|
A|-------17-17-17-171717-17-17--17---------------------------------------------|
F|-------21-22-21-21212--22-21--20---------------------------------------------|
C|-----------------------------------------------------------------------------|
G|-----------------------------------------------------------------------------|
C|-----------------------------------------------------------------------------|
Outros vídeos desta música
    3.059 exibições
      • ½ Tom
      • A
      • Bb
      • B
      • C
      • Db
      • D
      • Eb
      • E
      • F
      • F#
      • G
      • Ab
    • Adicionar à lista

    Afinação da cifra

    Afinador online

      0 comentários

      Ver todos os comentários

      Entre para o Cifra Club PRO

      Tenha acesso a benefícios exclusivos no App e no Site

      • Chega de anúncios

      • Badges exclusivas

      • Mais recursos no app do Afinador

      • Atendimento Prioritário

      • Aumente seu limite de lista

      • Ajude a produzir mais conteúdo

      Cifra Club Pro

      Aproveite o Cifra Club com benefícios exclusivos e sem anúncios
      Cifra Club Pro
      Aproveite o Cifra Club com benefícios exclusivos e sem anúncios
      Ops (: Contenido disponible sólo en portugués.
      OK