Cifra Club

Tragic Magic

Falling In Reverse

Cifra: Principal (violão e guitarra)
Selo Cifra Club: esta cifra foi revisada para atender aos critérios oficiais da nossa Equipe de Qualidade.
tom: C
Drop C

(C G C F A D)


Intro/Refrão:

Guitarra 1                                                   
D|--------||--------------------|-----------------------|
A|-x------||--------------------|-----------------------|
F|-x-10\\-||--14~-10~-5~--10~14~|-15~-12~-12~--15~14~15~|
C|-x-10\\-||--x---x---x---x---x-|-x---x---x----x--x--x--|
G|-x--8\\-||--12~-8~--3~--8~-12~|-13~-10~-10~--13~12~13~|
C|--------||--------------------|-----------------------|...
||                                     x2
D|-----------------|--------------|
A|-----------------|--------------|
F|-12~-9~-6~--7~9~-|-10~-5~--14~--|
C|-x---x--x---x-x--|-x---x---x----|
G|-10~-7~-4~--5~7~-|-8~--3~--12~--|
C|-----------------|--------------|

Segundo Final
|-----------------|
|-----------------|
|-----------------|
|---7-7----10-10--| 
|-x-7-7--x-10-10--|
|-x-7-7--x-10-10--|

Guitarra 2                                     x2
D|--------||--------------------|-----------------------|
A|--------||--------------------|-----------------------|
F|--------||--------------------|-----------------------|
C|--------||--3-3-3-3-3-3-3-3---|----8-8-8-8-8-8-8-8----|
G|--------||--3-3-3-3-3-3-3-3---|----8-8-8-8-8-8-8-8----|
C|--------||--3-3-3-3-3-3-3-3---|----8-8-8-8-8-8-8-8----|....
||
D|-----------------|-----------------------|
A|-----------------|-----------------------|
F|-----------------|------------------5-5~-|
C|-5-5-5-5-5-5-5-5-|-3-3-3-3-3----3---5-5~-|
G|-5-5-5-5-4-4-4-4-|-3-3-3-3-3-33-3-3-3-3~-|
C|-5-5-5-5-5-5-5-5-|-3-3-3-3-3-33-3-3------|


Verso 0:29 (Guitarra 2)
D|----------------------------------------------------------------|
A|----------------------------------------------------------------|
F|----------------------------------------------------------------|
C|-0~~(12)~----3~~(15)~-------8~~-------7~~---11-11-11--11-11-11--|
G|-0~~(12)~----3~~(15)~-------8~~-------7~~---11-11-11--11-11-11--|
C|-0~~(12)~----3~~(15)~-------8~~-------7~~---11-11-11--11-11-11--|...
||
D|---------|---------|---------|
A|---X4----|---X4----|---X4----|
F|---------|---------|---------|
C|---------|---------|---------|
G|-0-0-0-0-|-3-3-3-3-|-8-8-8-8-|
C|-0-0-0-0-|-3-3-3-3-|-8-8-8-8-|...
   * * * *   * * * *   * * * * 
||
D|-----------------------------------------|----------------|
A|-----------------------------------------|----------------|
F|-----------------------------------------|----------------|
C|-----------------------------------------|--8~--XXXX------|
G|-7-7-7-7-7-7-7-7-15-15-15-15-14-14-14-14-|--8~--XXXX------|
C|-7-7-7-7-7-7-7-7-15-15-15-15-14-14-14-14-|--8~--XXXX------|
   * * * * * * * * *  *  *  *  *  *

(Refrão)

"La La Lalala"
D|------------------------------------------------------------------------|
A|------------------------------------------------------------------------|
F|-------------------------------------------------------------------5-5~-|
C|--3-3-3-3-3-3-3-3-8-8-8-8-8-8-8-8-5-5-5-5-5-5-5-5-3-3-3-3-7----7---5-5~-|
G|--3-3-3-3-3-3-3-3-8-8-8-8-8-8-8-8-5-5-5-5-4-4-4-4-3-3-3-3-7-77-7-7-3-3~-|
C|--3-3-3-3-3-3-3-3-8-8-8-8-8-8-8-8-5-5-5-5-5-5-5-5-3-3-3-3-7-77-7-7------|
                                                              **   *
Verso 2 1:33
D|---------------------------------------------------------------------|
A|---------------------------------------------------------------------|
F|-------------------------------------------------------HARMONICS-----|
C|-0~~(12)~----3~~(15)~-------8~~-------7~~---11-11-11--1/2/3/4/5/6/7--|
G|-0~~(12)~----3~~(15)~-------8~~-------7~~---11-11-11-----------------|
C|-0~~(12)~----3~~(15)~-------8~~-------7~~---11-11-11-----------------|..

Guitarra 1
D|---------|---------|----------|
A|-10--8-10|-10--8-10|-11--10-11|
F|-10--9-10|-10--9-10|-10--10-10|
C|---------|---------|----------|
G|---X2----|---X2----|---X2-----|
C|---------|---------|----------|...
||
D|--------------------------------------------------------------|
A|-13---11--13---13---------------------------------------------|
F|-12---10--12---12--------------------------------HARMONICS----|
C|------------------------------------------------7\6\5\4\3\2\1-|
G|--------------------------------------------------------------|
C|--------------------------------------------------------------|

Guitarra 2
D|---------|---------|----------|
A|---X4----|---X4----|---X4-----|
F|---------|---------|----------|
C|---------|---------|----------|
G|-0-0-0-0-|-3-3-3-3-|-8-8-8-8--|
C|-0-0-0-0-|-3-3-3-3-|-8-8-8-8--|...
   * * * *   * * * *   * * * *   
||
D|-----------------------------------------|--------------------|
A|-----------------------------------------|--------------------|
F|-----------------------------------------|--------------------|
C|-----------------------------------------|--8~--XXXX----------|
G|-7-7-7-7-7-7-7-7-15-15-15-15-14-14-14-14-|--8~--XXXX----------|
C|-7-7-7-7-7-7-7-7-15-15-15-15-14-14-14-14-|--8~--XXXX----------|
   * * * * * * * *  *  *  *  *  *  * 

(Refrão)

"La La Lalala" 2:25
D|-------------------|------------------|
A|-------------------|------------------|
F|-------------------|------------------|
C|--3-3--------------|-8-8--------------|
G|--3-3-3-3-3-3-3-3--|-8-8-8-8-8-8-8-8--|
C|--3-3-3-3-3-3-3-3..|-8-8-8-8-8-8-8-8..|
        * * * * * *        * * * * * *    
||
D|------------------|-----------------------------------|
A|------------------|------Dont-play-2nd-time-through---|
F|------------------|----------------↓------------------|
C|-5-5--------------|-3-3-------------------------------| x2
G|-5-5-4-4-4-4-4-4--|-3-3-(3-3-3-3-3-3-3-3-3-3)--15\\\--|
C|-5-5-5-5-5-5-5-5..|-3-3-(3-3-3-3-3-3-3-3-3-3)--15\\\--|
   * * * * * *         * * * * * * * * * *

Breakdown 2:50
D|--------------------------------------------|
A|--------------------------------------------|
F|--------------------------------------------|
C|--------------------------------------------|
G|--3---3333333-3--33-33--8---8888888-8--88-88|
C|--3---3333333-3--33-33--8---8888888-8--88-88|...
    *   ******* *  ** **  *   ******* *  ** ** 
||
D|------------------------------------------------|
A|------------------------------------------------|
F|------------------------------------------------| 
C|------------------------------------------0~----|
G|--5-55--5555554-4--44-44--3---3333333-3--x0~----|
C|--5-55--5555555-5--55-55--3---3333333-3--x0~----|
    * **  ******* *  ** **  *   ******* *


D|------------------------------------------------|
A|------------------------------------------------|
F|------------------------------------------------|
C|------------------------------------------------|
G|--3~--3333333-3~-33~33~-8~--8888888-8~-88~88~-5~|
C|--3~--3333333-3~-33~33~-8~--8888888-8~-88~88~-5~|...
||
D|------------------------------------------------|
A|------------------------------------------------|
F|------------------------------------------------| 
C|------------------------------------------0~----|
G|--5-55--5555554-4--44-44--3---3333333~-3~--x0~----|
C|--5-55--5555555-5--55-55--3---3333333~-3~--x0~----|
Outros vídeos desta música
    483 exibições
      • ½ Tom
      • A
      • Bb
      • B
      • C
      • Db
      • D
      • Eb
      • E
      • F
      • F#
      • G
      • Ab
    • Adicionar à lista

    Afinação da cifra

    Afinador online

      0 comentários

      Ver todos os comentários

      Entre para o Cifra Club PRO

      Tenha acesso a benefícios exclusivos no App e no Site

      • Chega de anúncios

      • Badges exclusivas

      • Mais recursos no app do Afinador

      • Atendimento Prioritário

      • Aumente seu limite de lista

      • Ajude a produzir mais conteúdo

      Cifra Club Pro

      Aproveite o Cifra Club com benefícios exclusivos e sem anúncios
      Cifra Club Pro
      Aproveite o Cifra Club com benefícios exclusivos e sem anúncios
      Ops (: Contenido disponible sólo en portugués.
      OK