Cifra Club

Guardian

Fates Warning

Cifra: Principal (violão e guitarra)
Selo Cifra Club: esta cifra foi revisada para atender aos critérios oficiais da nossa Equipe de Qualidade.
tom: F
HERES A LITTLE OF IT I'LL FINSH IT LATER

Tabbed by:WESLEEPFOREVER4
I got this from the book noone had a tab for it so i was like sure why not.
Email:*
Slow Rock Q=72
Tuning:drop D
GTR.1 (*.)
   4/4 
e|-------0-------5---------0--------0---|-----0-------5-------0-------0--|
B|-----6---6---6---6----10---10---8---8-|---6---6---6---6---8---8---6---6|
G|---7-------7-------10---------9-------|-7-------7-------5-------5------|
D|--------------------------------------|--------------------------------|
A|--------------------------------------|--------------------------------|
E|--------------------------------------|--------------------------------|
   
e|-----0-------5-------0-------0---|
B|---6---6---6---6---1---1---3---3-|
G|-7-------7-------3-------5-------|
D|---------------------------------|
A|---------------------------------|
E|---------------------------------|
  
GTR.2
                                                           P      H  P
e|--------------------------------|--------------------------------------|
B|--------------5--------6--------|-10----------11-------11-8---10-11-10-|
G|---7----------------------------|--------------------------------------|
D|--------------------------------|--------------------------------------|
A|--------------------------------|--------------------------------------|
E|--------------------------------|--------------------------------------|
 
e|-----------------------|--------------------------10-----------12-----|
B|-----------------------|---10--------------11--13----11--13--------13-|
G|---12-----10----12-----|------------------------------------12--------|
D|-----------------------|----------------------------------------------|
A|-----------------------|----------------------------------------------|
E|-----------------------|----------------------------------------------|
 |
 |
 |
 |
 |GTR.1 (*.1)
e|-----0-------5-------0-------0---|------0-------5---------0--------0---|
B|---6---6---6---6---8---8---6---6-|----6---6---6---6----10---10---8---8-|
G|-7-------7-------5-------5-------|--7-------7-------10---------9-------|
D|---------------------------------|-------------------------------------|
A|---------------------------------|-------------------------------------|
E|---------------------------------|-------------------------------------|
                                                           (END *.1)
e|------0-------5-------0-------0---|-----0-------5-------0-------0---|
B|----6---6---6---6---8---8---6---6-|---6---6---6---6---1---1---3---3-|
G|--7-------7-------5-------5-------|-7-------7-------3-------5-------|
D|----------------------------------|---------------------------------|
A|----------------------------------|---------------------------------|
E|----------------------------------|---------------------------------|
w/*.1
 GTR.2                  H  P
e|--10-----12---12--13--12-------12-|--10--------------------------|
B|---------------------------13-----|------10-11-10----10----11----|
G|----------------------------------|---------------12----12----12-|
D|----------------------------------|------------------------------|
A|----------------------------------|------------------------------|
E|----------------------------------|------------------------------|
                      FASTER = 88 3/4
                       H P    ~~~~~~                PM----|
e|-----------------|------------------------|------------------5-5---5-----|
B|-----------------|--5-6-5-----------------|--------------6-6-----8---8--6|
G|-----------------|---------7--------------|----------5-5-----------------|
D|----8--7---------|----------------------7-|-5------5---------------------|
A|----------10--8--|-----------------8--8---|------------------------------|
E|-----------------|------------------------|------------------------------|






| /  slide up
| \  slide down
| h  hammer-on
| p  pull-off
| ~  vibrato
| +  harmonic
| x  Mute note
===============================================================================
Outros vídeos desta música
    422 exibições
      • ½ Tom
      • A
      • Bb
      • B
      • C
      • Db
      • D
      • Eb
      • E
      • F
      • F#
      • G
      • Ab
    • Adicionar à lista

    Afinação da cifra

    Afinador online

      0 comentários

      Ver todos os comentários

      Entre para o Cifra Club PRO

      Tenha acesso a benefícios exclusivos no App e no Site

      • Chega de anúncios

      • Badges exclusivas

      • Mais recursos no app do Afinador

      • Atendimento Prioritário

      • Aumente seu limite de lista

      • Ajude a produzir mais conteúdo

      Cifra Club Pro

      Aproveite o Cifra Club com benefícios exclusivos e sem anúncios
      Cifra Club Pro
      Aproveite o Cifra Club com benefícios exclusivos e sem anúncios
      OK