Cifra Club

The Sorceress

Fates Warning

Cifra: Principal (violão e guitarra)
Selo Cifra Club: esta cifra foi revisada para atender aos critérios oficiais da nossa Equipe de Qualidade.
tom: Dm
E|E|-----------------------------------------------------------------------------------||
                        F TES WARNING -the Sorceress from Awaken the Guardian 1986
E|E|-----------------------------------------------------------------------------------||
Tabbed by:NihilView
E-mail:

Tuning:D STANDARD DGCF d whole step down.   my attempt to figured and tab this great heavy-speed metal song
                                            some part are wrong but its basic structure for advanced work

                                                   

E|----------------------------------------------------------------------------| ACOUSTIC INTRO
B|------------------------------------------------------------5---------------|
G|-----------2------2------------------2--------2-------------4---------------| Let Ring 0:00-0:40
D|--------3-----3------3---------5---------5--------5---------2---------------|
A|----5-------------------------------------------------------2---------------|
E|---------------------------0------------------------------------------------|

                                                                                        VERSE
E|-------------------------------------------------------------------------------|
B|-------------------------------------------------------------------------------| 0:40-0:57
G|-------------------------------------------------------------------------------|
D|--------------------9---8-10------5| H7p5-----------------------------7--6---5---|
A|----5| H 777--5H7-----------8---------------8--7--5-----5h 777 5h7-----------3---|
E|--------------------------8------------------------------------------------3---|

E|---------------------------------------------------------------------------|
B|---------------------------------------------------------------------------| PD-C HORUS
G|---------------------------------------------------------------------------|
D|-----------------------------4--3------------------------2-----------------| 0:57-1:17
A|-----------------------------2--1--1--11111-1-111--11----0-----------------|
E|-0--000---0-000-0-000---0--------------------------------------------------|
 
 P.M.---------------------           P.M.-------------           



E|---------------------------------------------------------------------------|
B|---------------------------------------------------------------------------|
G|---------------------------------------------------------------------------|
D|----8---------7--9----9---8----10------------------------------------------|
A|----66| 66666--5--7 ---9---8----8-------------------------------------------|
E|----------------------7---6------------------------------------------------|

E|------------------------------------------------------------------------------| CHORUS
B|------------------------------------------------------------------------------|
G|--4----4------4-------2-----------------4-------4------4----------------------|
D|--4----4------4--5----2---------2-2-2---4-------4------4---5---4-4--4---2-2---| 1:17-1:37
A|--222222--22222--2----0-000000--3-3-3---2--222222--22222---7---5-5--5---3-3---|
E|------------------------------------------------------------------------------|

E|---------------------------------------------------------------------------| D PEAT VERSE+PDC HORUS
B|---------------------------------------------------------------------------|
G|---------------------------------------------------------------------------|
D|---------------------------------------------------------------------------|
A|---------------------------------------------------------------------------|
E|---------------------------------------------------------------------------|

E|---------------------------------------------------------------------------|
B|---------------------------------------------------------------------------| BRIDGE 1
G|---------------------------------------------------------------------------| 2:34-2:46
D|------------------------5---------------------3-------5--------------------|
A|------------------------3---------------------5-s| l.---7--------------------|
|-0 0000 00 0000 00----------00 0000 0000 00--------------------------------|

P.M-----------------        P.M.-----------



E|---------------------------------------------------------------------------| after mute bridge play
B|---------------------------------------------------------------------------| something this effort??
G|---------------------------------------------------------------------------|
D|---5----5-----4---4-----3---3-------------------3-2-3-------------3-2--3---|
A|---7----6-----6---5-----5---4-------------------5-3-5-------------5-3--5---|
E|---------------------------------000| 00000 000---------00 0000 00----------|

                                  P.M.--------           P.M.------


E|------------------------------------------------------------------------------|
B|------------------------------------------------------------------------------| BRIDGE 2
G|------------------------------------------------------------------------------| 3:20-3:35
D|-------4-----------3------------------------4---------------------------------|
A|----4----------3------------2----5--------4------3-----2----------------------|
E|-2---------1-------------0-------3-----2---------1--0-----0---3---------------|

                                                                                           HEAVY RIFF
E|E|-----------------------------------------------------------------------------------||------|
E|E|-----------------------------------------------------------------------------------||------|   3:35-3:53
E|E|-----------------------------------------------------------------------------------||------|
------------------------------------------------------------   -4--------3---------------|
-------------------------0-----------------------------5----  4-------3---------2-----5--|
---0h222222--0-2--0-2-------20-2---0h222222--02--0--2--3----2-------1--------0--------3--|

P.M.-----------------           P.M.-----------





E|-------------------------------------------------------------|
B|-------------------------------------------------------------| G  O BACK: 4:16-------
G|-------------------------------------------------------------|
D|-------------------------------------------------------------|
A|-------------------------------------------------------------|
E|--2220| 222 0222--0H20--6--22-20-2220- 222-02--2h3------------|

 P.M.---------------------------------------------  lightly palm mute


AFTER G  O D PEAT SONG STRUCTUD  RIFFS BRIDGE CHORUS etc.




P.M palm muting

| /   slide up
| \   slide down
| h   hammer-on
| p   pull-off
| ~   vibrato
| +   harmonic
| x   Mute note
| b   Bend
| pb  Pre-bend
| br  Bend release
| pbr Pre-bend release
| brb Bend release bend
Outros vídeos desta música
    3 exibições
      • ½ Tom
      • Am
      • Bbm
      • Bm
      • Cm
      • C#m
      • Dm
      • Ebm
      • Em
      • Fm
      • F#m
      • Gm
      • G#m
    • Adicionar à lista

    Afinação da cifra

    Afinador online

      0 comentários

      Ver todos os comentários

      Entre para o Cifra Club PRO

      Tenha acesso a benefícios exclusivos no App e no Site

      • Chega de anúncios

      • Badges exclusivas

      • Mais recursos no app do Afinador

      • Atendimento Prioritário

      • Aumente seu limite de lista

      • Ajude a produzir mais conteúdo

      Cifra Club Pro

      Aproveite o Cifra Club com benefícios exclusivos e sem anúncios
      Cifra Club Pro
      Aproveite o Cifra Club com benefícios exclusivos e sem anúncios
      OK