Cifra Club

Aprenda

1 2 3 4

Feist

Tab de baixo: Principal
Tabbed By: Valerie L. 
e-mail: *

Pre-Chorus
G|----------------------|
D|----------------------|
A|-5-5--7-7-------------|
E|----------7-7--3-3----| x2

Chorus "you're changing your heart"
G|-----------------------|
D|-----------------------|
A|-----------------------|
E|5-5-5-5--3-3-3-3-3-----| x2

Verse "sweet heart, bitter heart.."
G|------------------------------|
D|------------------------------|
A|5---5---5---5---5---5---5-----|
E|------------------------------|

Pre-Chorus x2
Chorus x2

Rest

Bridge (1:20)
G|--------------|
D|--------------|
A|5--4--2-------|
E|---------3----| x4

Chorus x4

Outro
G|-------------------------|
D|-------------------------|
A|5-55-777777--------------|
E|------------7-7-7--3-3---| x4
727 exibições

0 comentários

Mostrar mais comentários

Conseguiu tocar?

0 Tocaram 0 Ainda não

Grave um vídeo tocando 1 2 3 4 e mande pra gente!

00:00 / 00:00
outros vídeos desta música
repetir qualidade Automático
Outros vídeos desta música
00:00 / 00:00
Automático
OK