Cifra Club

Lonely Lonely

Feist

Cifra: Principal (violão e guitarra)
Tom: G
(intro)
E|--------2--------------|
B|-----3-----3-----------|
G|--4-----------4--2--0--|
D|--0-----------0-----0--|
A|-----------------------|
E|-----------------------|

(verso 1)
E|-----------------------|-----------------------|-----------------------|
B|-----------------------|-----------------------|--3--1--0-----1--0-----|
G|--4--2--0--------------|--4--2--0-----------4--|-----------0--------2--|
D|-----------0--2--4--0--|-----------0--2--0-----|-----------------------|
A|-----------------------|-----------------------|-----------------------|
E|-----------------------|-----------------------|-----------------------|

Water, water on the seeds
To my left they rose and leaf
To my right cross Seven Seas

E|--------2--------------|
B|-----3-----3-----------|
G|--4-----------4--2--0--|
D|--0-----------0-----0--|
A|-----------------------|
E|-----------------------|

Mmm mmm mmm mmm mmm mmm mmm

E|-----------------------|-------------------------------|-----------------------|
B|-----------------------|-------------------------------|--3--1--0-----1--0-----|
G|--4--2--0-----------4--|--4--2--0----------------------|-----------0--------2--|
D|-----------0--2--0-----|-----------0--2--4--0----------|-----------------------|
A|-----------------------|-------------------------------|-----------------------|
E|-----------------------|-----------------------(3)-(0)-|-----------------------|

Maybe, maybe they’ll stay true
My seeds will cross and then take root
And leave you to an empty room

(refrão)
E|--------2--------------|--------2------------------|
B|-----3-----3-----------|-----3-----3---------------|
G|--4-----------4--2--0--|--4-----------4--2--0------|
D|--0-----------0-----0--|--0-----------0-----0------|
A|-----------------------|---------------------------|
E|-----------------------|-----------------------(3)-|

Lonely, lonely that is you
Lonely, lonely that is you

(verso 2)
E|-----------------------|-------------------------------|-----------------------|
B|-----------------------|-------------------------------|-----------------------|
G|--4--2--0--------------|--4--2--0-----------4----------|--3--1--0-----1--0-----|
D|-----------0--2--4--0--|-----------0--2--0-------------|-----------0--------2--|
A|-----------------------|-------------------------------|-----------------------|
E|-----------------------|-----------------------(3)-(0)-|-----------------------|

Paper, paper obsolete
How will you reach out to me?
I thought you’d ask me not to leave

(refrão)
E|--------2------------------|--------2--------------|
B|-----3-----3---------------|-----3-----3-----------|
G|--4-----------4--2--0------|--4-----------4--2--0--|
D|--0-----------0-----0------|--0-----------0-----0--|
A|---------------------------|-----------------------|
E|-----------------------(3)-|-----------------------|

Lonely, lonely that is me
Lonely, lonely that is me

(interlúdio)
There is a bit of guitar in here but it is very subtle, listen for it.

(ponte)
E|--7----------------------|--7----------------------x---------|
B|-----10--8---------7-----|----10--8----------7-----X---------|
G|-------------7--9-----7--|-------------7--9-----7--4---------|
D|-------------------------|-------------------------4---------|
A|-------------------------|-------------------------5---------|
E|-------------------------|-------------------------3-(3)-(0)-|

Distance makes the heart grow weak
So that the mouth can barely speak

E|--10--8--7-----8--7----------x-x-x--|
B|------------8--------10------x-x-x--|
G|-----------------------------4-4-4--|
D|-----------------------------4-4-4--|
A|-----------------------------5-5-5--|
E|-------------------------(3)-3-3-3--|

Except to those who hide their needs

E|--7----------------------x-----|--7----------------------x-------------|
B|-----10--8---------7-----x-----|----10--8----------7-----X-------------|
G|-------------7--9-----7--4-----|-------------7--9-----7--4-------------|
D|-------------------------4-----|-------------------------4-------------|
A|-------------------------5-----|-------------------------5-------------|
E|-------------------------3-(3)-|-------------------------3-(3)-(3)-(0)-|

And I have read the golden seal
That tells of how the seedlings feel

E|--10--8--7-----8--7----------|
B|------------8--------10------|
G|-----------------------------|
D|-----------------------------|
A|-----------------------------|
E|-------------------------(3)-|

Reminds my heart what love can yield

(refrão)
E|--------2------------------|--------2------------------|
B|-----3-----3---------------|-----3-----3---------------|
G|--4-----------4--2--0------|--4-----------4--2--0------|
D|---------------------------|---------------------------|
A|---------------------------|---------------------------|
E|-----------------------(3)-|-----------------------(3)-|

By my only things are clear
Baby boy I’m staying here

E|--------2------------------|--------2--------------|
B|-----3-----3---------------|-----3-----3-----------|
G|--4-----------4--2--0------|--4-----------4--2--0--|
D|--0-----------0-----0------|--0-----------0-----0--|
A|---------------------------|-----------------------|
E|-----------------------(3)-|-----------------------|

Lonely lonely that was you
Lonely and so untrue

(outro)
E|--------1/2------------------------------------------|
B|-----3-------3---------------------------------------|
G|--4-------------4--2--0------------------------------|
D|-----------------------------------------------------|
A|-------------------------(3)---------(3)-(3)---------|
E|-----------------------------(5)-(3)---------(5)-(3)-|
exibições 433
Acordes para:
    Composição: Feist / Tony Scherr Colaboração e revisão:
    • Jefferson Sousa

    0 comentários

    mostrar mais comentários

    Conseguiu tocar?

    0 tocaram 0 ainda não

    Grave um vídeo tocando Lonely Lonely e mande pra gente!

    00:00 / 00:00
    outros vídeos desta música
    repetir qualidade Automático
    Outros vídeos desta música
    00:00 / 00:00
    Automático
    OK