Cifra Club

Amando Individual (part. Gusttavo Lima)

Felipe Araújo

Cifra: Versão 2 (violão e guitarra)
tom: D
[Intro] D  D9  D  D9 
        Bm  B9  Bm

[Tab - Solo Intro]

Parte 1 de 5
E|-2-2-2-0-0h2-2-2-0------------------------|
B|-------------------3-3-3-2-2h3~-----------|
G|------------------------------------------|
D|------------------------------------------|
A|------------------------------------------|
E|------------------------------------------|

Parte 2 de 5
E|-2-2-2-0-0h2-2-2-0------------------------|
B|-------------------3-3-3-2-2h3~-----------|
G|------------------------------------------|
D|------------------------------------------|
A|------------------------------------------|
E|------------------------------------------|

Parte 3 de 5
E|-2-2-2-0-0h2-2-2-0------------------------|
B|-------------------3-3-3-2-2h3~-----------|
G|------------------------------------------|
D|------------------------------------------|
A|------------------------------------------|
E|------------------------------------------|

Parte 4 de 5
E|-3-3-3-5-2-2-2-3--------------------------|
B|-----------------5-3-2-3-5-3h5-3h5-3h5~---|
G|------------------------------------------|
D|------------------------------------------|
A|------------------------------------------|
E|------------------------------------------|

Parte 5 de 5
E|-3-3-3-5-2-2-2-3--------------------------|
B|-----------------5-3-2-3-3h5~-------------|
G|------------------------------------------|
D|------------------------------------------|
A|------------------------------------------|
E|------------------------------------------|

[Primeira Parte]

 D          D9  D       D9    Bm    B7(9) Bm
Quem mandou eu pôr amor onde era só prazer?
 D          D9  D          D9 Bm         B7(9) Bm 
Quem mandou eu me entregar inteiro antes de ter?

 Em            D/F#        A      A4    A
Quem mandou eu ligar no primeiro amanhecer?
 Em            D/F#      A      A4     A
Quem mandou eu falar de amor antes de ser?

[Segunda Parte]

 D      D9            D   D9
Dois corações em uma cama
    Bm        B9              Bm    
Um fala a verdade, o outro engana
D     D9                D    D9
Um querendo pra vida inteira
  Bm               Bm7   A A4
Outro só dois dias da semana

( A  A4  A )
( A  A4  A7 )

[Refrão]

                    D  D9  D  D9  D
A gente é o que afinal?
                           Bm  B9  Bm
Sozinho eu não formo um casal
                 G5
Você me usando por dois
                A4  A
Eu te amando individual

                    D  D9  D  D9  D
A gente é o que afinal?
                           Bm  B9  Bm
Sozinho eu não formo um casal
                 G5
Você me usando por dois
                A4  A
Eu te amando individual

 D    D9 D  D9  D  D5  D
Quem mandou eu pôr amor

[Solo] D  D9  D  D9
       D  D9  D 

[Tab - Solo]

Parte 1 de 2
E|------------------------------------------|
B|-7---5---5---5---7---5---5---5---7--------|
G|---7---7---7---7---7---7---7---7----------|
D|------------------------------------------|
A|------------------------------------------|
E|------------------------------------------|

Parte 2 de 2
E|-----------------------10--10\------------|
B|---5---5---5-----------10--10\------------|
G|-7---7---7---7-7~/14---11--11\------------|
D|-----------------------12--12\------------|
A|------------------------------------------|
E|------------------------------------------|

[Pré-Refrão]

D       D9            D    D9
Dois corações em uma cama
    Bm     B9                 Bm
Um fala a verdade, o outro engana
D      D9               D    D9
Um querendo pra vida inteira
  Bm               Bm7 A A4  A  A4 A
Outro só dois dias da semana

[Refrão Final]

                    D  D9  D  D9  D
A gente é o que afinal?
                           Bm  B9  Bm
Sozinho eu não formo um casal
                 G5
Você me usando por dois
                A4  A
Eu te amando individual

                    D  D9  D  D9  D
A gente é o que afinal?
                           Bm  B9  Bm
Sozinho eu não formo um casal
                 G5
Você me usando por dois
                A4  A
Eu te amando individual
             A
A gente é o que afinal?

 D   D9  D  D9  D  D5 D
Quem mandou eu pôr amor
00:00 / 00:00
Outros vídeos desta música
Repetir
Outros vídeos desta música
Composição de Blener Maycom / Rafael Quadros / Vinni Miranda / Waléria Leão
Colaboração e revisão:
  • Cleiton Passos
74 exibições
    • ½ Tom
    • A
    • Bb
    • B
    • C
    • Db
    • D
    • Eb
    • E
    • F
    • F#
    • G
    • Ab
  • Adicionar à lista

    0 comentários

    Ver todos os comentários

    Conseguiu tocar?

    0 Tocaram 0 Ainda não

    Grave um vídeo tocando Amando Individual (part. Gusttavo Lima) e nos envie!

    Entre para oCifra Club PRO

    Tenha acesso a benefícios exclusivos no App e no Site

    • Chega de anúncios

    • Prioridade de compra em lançamentos

    • Mais recursos no app do Afinador

    • Atendimento Prioritário

    • Descontos nos produtos Cifra Club

    • Ajude a produzir mais conteúdo

    00:00 / 00:00

    Cifra Club Pro

    Aproveite o Cifra Club com benefícios exclusivos e sem anúncios
    Cifra Club Pro
    Aproveite o Cifra Club com benefícios exclusivos e sem anúncios
    OK