Notificações Amigos pendentes

      Felipe Dylon

      Deixa Disso

      245.053 exibições
      Tom: E
      
           E     B    C#m    A      
      E|-------------------------|
      B|-------------------------|       Guitarra base:
      G|----9----------------14--|  ---> Esta parte é tocada na introdução e depois do refrão
      
      
      D|----9-----9----11----14--|                         (E B C#m A)
      A|----7-----9----11----12--|
      E|----------7----9---------|
      
      
      Guitarra Solo       
      
      E|-7-7-x-x-7-7-x-x-7-7-x-x-7-7-x-x-9-9-x-x-9-9-x-x--------------------|
      B|-5-5-x-x-5-5-x-x-7-7-x-x-7-7-x-x-9-9-x-x-9-9-x-x-10-10-x-x-10-10-x-x|       
      G|-4-4-x-x-4-4-x-x-8-8-x-x-8-8-x-x-9-9-x-x-9-9-x-x-9--9--x-x-9--9--x-x|  
      D|-------------------------------------------------7--7--x-x-7--7--x-x|
      A|--------------------------------------------------------------------|
      E|--------------------------------------------------------------------|
      
                               
      
      (E B C#m A)
      FOI NUMA SEGUNDA DE VERÃO
      QUE EU A VI PELA PRIMEIRA VEZ
      FOI A SUA PRIMEIRA APARIÇÃO
      O BASTANTE PRA ME CONVENCER
      
      
           E     B    C#m    A     G#
      E|--------------------------------|
      B|--------------------------------|
      G|----------4----6----------------|  ---> Acordes Usados
      D|----2-----4----6-----7------6---|
      A|----2-----2----4-----7------6---|
      E|----0----------------5------4---|
      
      
      E                        B
      A PARTIR DAQUELE DIA ENTÃO
      
                       A
      EU SEMPRE ESTAVA LÁ NA MESMA HORA
        
               G# A   
      E NO MESMO LUGAR
      
      E                       B
      SÓ PRA PODER TE ENCONTRAR
      
      A                    G# A
      SÓ PRA PODER TE ENCONTRAR
      
      C#m                    A
      SEMPRE QUE SENTAVA NO SOFÁ
      
                       E
      COMEÇAVA A IMAGINAR O QUE FAZER
      
           B
      ONDE VOCÊ ESTÁ ?
      
      C#m                      A
      EU CONTAVA AS HORAS PRA TE VER
      
                  B
      MAS NÃO RESPONDIA AO MEU OLHAR
      
      E               B
      ÔH MENINA DEIXA DISSO
      
                      C#m
      QUERO TE CONHECER
      
                      A
      VÊ SE ME DÁ UMA CHANCE
      
                     E
      TÔ A FIM DE VOCÊ
      
      (E B C#m A)  -->  mesma parte da introdução
      (E B C#m A)
      EU FICO O DIA INTEIRO
      SÓ PENSANDO EM VOCÊ
      NA MINHA CAMA NO CHUVEIRO
      CONTO AS HORAS PRÁ TE VER
      
      E                      B
      ESPERO QUE UM DIA VOCÊ POSSA ME NOTAR
      
             A
      EU SOU UM CARA MANEIRO
      
            G# A
      VÊ SE PARA DE ESNOBAR
      
      C#m                    A
      SEMPRE QUE SENTAVA NO SOFÁ
      
                       E
      COMEÇAVA A IMAGINAR O QUE FAZER
      
           B
      ONDE VOCÊ ESTÁ ?
      
      C#m                      A
      EU CONTAVA AS HORAS PRA TE VER
      
                  B
      MAS NÃO RESPONDIA AO MEU OLHAR
      
      E               B
      ÔH MENINA DEIXA DISSO
      
                      C#m
      QUERO TE CONHECER
      
                      A
      VÊ SE ME DÁ UMA CHANCE
      
                     E
      TÔ A FIM DE VOCÊ
      
      
      Solo:
      
      
      E|--0-7--0-7--0-7--0-12--0-12-0-12-12-12---0-7--0-7--0-7--0-17--0-16--0-14---12-19-24|
      B|-----------------------------------------------------------------------------------|
      G|-----------------------------------------------------------------------------------|
      D|-----------------------------------------------------------------------------------|
      A|-----------------------------------------------------------------------------------|
      E|-----------------------------------------------------------------------------------|
      
      
      C#m                    A
      SEMPRE QUE SENTAVA NO SOFÁ
      
                       E
      COMEÇAVA A IMAGINAR O QUE FAZER
      
           B
      ONDE VOCÊ ESTÁ ?
      
      C#m                      A
      EU CONTAVA AS HORAS PRA TE VER
      
                  B
      MAS NÃO RESPONDIA AO MEU OLHAR
      
      E               B
      ÔH MENINA DEIXA DISSO
      
                      C#m
      QUERO TE CONHECER
      
                      A
      VÊ SE ME DÁ UMA CHANCE
      
                     E
      TÔ A FIM DE VOCÊ  --> Repete a sequência E B C#m A até o Final
        Composição: Marcelo ManciniColaboração e revisão:
        • Jesscik
        • Lupa

        Comentários 0

        140 .
        140 cancelar

        conseguiu tocar?

        Lucas388 visualizações
          ver covers de outras músicas »
          0:00 / 0:00

          Capítulos

            2 versões de violão dificuldade exibições contribuição e correção
            2 versões de guitarra dificuldade exibições contribuição e correção
            2 versões de cavaco dificuldade exibições contribuição e correção
            2 versões de teclado dificuldade exibições contribuição e correção
            1 versão de baixo exibições contribuição e correção
            1 versão de Guitar Proformatodownloadscontribuição
            play/pausefechar subir/descer velocidade
            6ª corda E5ª corda A4ª corda D3ª corda G2ª corda B1ª corda E
              acordes
              publicidade
              fechar
              ok