Cifra Club

Aprenda

Flight 601

Fenix TX

Cifra: Principal (violão e guitarra)
tom: E
Intro: (2x)    
e|----------------------------------------------------------12----12---------------|
B|-9---9---12---12----9---9---12---12----9---9---12---12-------12--------10---10---|
G|---9---9----9----9----9---9----9----9----9---9----9----9------------9-----9----9-|
D|---------------------------------------------------------------------------------|
A|---------------------------------------------------------------------------------|
E|---------------------------------------------------------------------------------|

Verse: (2x)
e|----------------------------------------------------------------------|
B|----------------------------------------------------------------------|
G|-9--9-9-9-9-9-9--4--4-4-4-4-4-4--6--6-6-6-6-6--5--5-5-5-5--4--4-4-4-4-|
D|-9--9-9-9-9-9-9--4--4-4-4-4-4-4--6--6-6-6-6-6--5--5-5-5-5--4--4-4-4-4-|
A|-7--7-7-7-7-7-7--2--2-2-2-2-2-2--4--4-4-4-4-4--3--3-3-3-3--2--2-2-2-2-|
E|----------------------------------------------------------------------|
PM    ___________     ___________     _________     _______     _______

Chorus: (2x)
e|-----------------------------------------------------------------|
B|-----------------------------------------------------------------|
G|-9-9-9-9-9-9-9--4-4-4-4-4-4-4--6-6-6-6-6-6--5-5-5-5-5--4-4-4-4-4-|
D|-9-9-9-9-9-9-9--4-4-4-4-4-4-4--6-6-6-6-6-6--5-5-5-5-5--4-4-4-4-4-|
A|-7-7-7-7-7-7-7--2-2-2-2-2-2-2--4-4-4-4-4-4--3-3-3-3-3--2-2-2-2-2-|
E|-----------------------------------------------------------------|

Solo:
e|------------------------------------------------
B|-8/9--9-9-9-9-9-9-9-9-9--8/9--9-9-9-9-9-9-9-9-9-
G|-8/9--9-9-9-9-9-9-9-9-9--8/9--9-9-9-9-9-9-9-9-9-
D|------------------------------------------------
A|------------------------------------------------
E|------------------------------------------------

e|------------------------------12-12--12-10-------------
B|-8/9--12-12-12-12-12-12-12-12-12-12--------12-10-12-10-
G|-8/9---9--9--9--9--9--9--9--9--9--9--------------------
D|-------------------------------------------------------
A|-------------------------------------------------------
E|-------------------------------------------------------

e|------------------------------------------------
B|-8/9--9-9-9-9-9-9-9-9-9--8/9--9-9-9-9-9-9-9-9-9-
G|-8/9--9-9-9-9-9-9-9-9-9--8/9--9-9-9-9-9-9-9-9-9-
D|------------------------------------------------
A|------------------------------------------------
E|------------------------------------------------

e|------------------------------12-12--15-14-12-10----10--|
B|-8/9--12-12-12-12-12-12-12-12-12-12--------------12-----|
G|-8/9---9--9--9--9--9--9--9--9--9--9---------------------|
D|--------------------------------------------------------|
A|--------------------------------------------------------|
E|--------------------------------------------------------|

Bridge: (2x)
e|-----------------------------------|
B|-12-------12-------10-------9------|
G|----9--------9--------9-------9----|
D|------9--------9--------9-------9--|
A|-----------------------------------|
E|-----------------------------------|
Composição de Fenix TX
Colaboração e revisão:
  • Caetano Sauer
2.401 exibições
    • ½ Tom
    • A
    • Bb
    • B
    • C
    • Db
    • D
    • Eb
    • E
    • F
    • F#
    • G
    • Ab
  • Adicionar à lista

    0 comentários

    Ver todos os comentários

    Conseguiu tocar?

    0 Tocaram 0 Ainda não

    Grave um vídeo tocando Flight 601 e nos envie!

    00:00 / 00:00
    outros vídeos desta música
    repetir qualidade Automático
    Outros vídeos desta música
    00:00 / 00:00
    Automático

    Cifra Club Pro

    Aproveite o Cifra Club com benefícios exclusivos e sem anúncios
    Cifra Club Pro
    Aproveite o Cifra Club com benefícios exclusivos e sem anúncios
    OK