Cifra Club

Aprenda

Phoebe Cates

Fenix TX

Cifra: Principal (violão e guitarra)
tom: G
intro: 
e|---------------------------------------------------------------------------| 
B|---------------------------------------------------------------------------| 
G|-----------------------4-5-5-5-5-5-5-5-5-5-4-------------------------------| 
D|-5-5-5-5-5-5-5-5-5-5---4-5-5-5-5-5-5-5-5-5-4---2-2-2-2-2-2-2-2-2-5---------| 
A|-5-5-5-5-5-5-5-5-5-5---2-3-3-3-3-3-3-3-3-3-2---2-2-2-2-2-2-2-2-2-5---------| 
E|-3-3-3-3-3-3-3-3-3-3---------------------------0-0-0-0-0-0-0-0-0-3---------| 

e|---------------------------------------------------------------------------| 
B|---------------------------------------------------------------------------| 
G|-------------7-7-7-7-7-----------------------------------------------------| 
D|-7-7-7-7-7---7-7-7-7-7-----------------------------------------------------| 
A|-7-7-7-7-7---5-5-5-5-5-----------------------------------------------------| 
E|-5-5-5-5-5-----------------------------------------------------------------| 

verse: 
e|---------------------------------------------------------------------------| 
B|---------------------------------------------------------------------------| 
G|--------4-5~------4----------------------7-7-7-7-7-------------------------| 
D|--5~----4-5~------4-2~-----5-7-7-7-7-7---7-7-7-7-7-------------------------| 
A|--5~----2-3~------2-2~-----5-7-7-7-7-7---5-5-5-5-5-------------------------| 
E|--3~----------------0~-----3-5-5-5-5-5-------------------------------------| 

chorus: 
e|---------------------------------------------------------------------------| 
B|---------------------------------------------------------------------------| 
G|-5-5-5-5-5-5-5-5-5-5---7-7-7-7-7-7-7-7-7-7-7---9-9-9-9-9---7-7-7-7-7-------| 
D|-5-5-5-5-5-5-5-5-5-5---7-7-7-7-7-7-7-7-7-7-7---9-9-9-9-9---7-7-7-7-7-------| 
A|-3-3-3-3-3-3-3-3-3-3---5-5-5-5-5-5-5-5-5-5-5---7-7-7-7-7---5-5-5-5-5-------| 
E|---------------------------------------------------------------------------| 

e|---------------------------------------------------------------------------| 
B|---------------------------------------------------------------------------| 
G|-5-5-5-5-5--5-5-5-5-7---5-5-5-5-5-5-5-5-5-5---7-7-7-7-7-7-7-7-7-7----------| 
D|-5-5-5-5-5--5-5-5-5-7---5-5-5-5-5-5-5-5-5-5---7-7-7-7-7-7-7-7-7-7----------| 
A|-3-3-3-3-3--3-3-3-3-5---3-3-3-3-3-3-3-3-3-3---5-5-5-5-5-5-5-5-5-5----------| 
E|---------------------------------------------------------------------------| 

e|---------------------------------------------------------------------------| 
B|---------------------------------------------------------------------------| 
G|-9-9-9-9-9---7-7-7-7-7---5-5-5-5-5--7-7-7-7-7------------------------------| 
D|-9-9-9-9-9---7-7-7-7-7---5-5-5-5-5--7-7-7-7-7------------------------------| 
A|-7-7-7-7-7---5-5-5-5-5---3-3-3-3-3--5-5-5-5-5------------------------------| 
E|---------------------------------------------------------------------------| 

bridge: 
e|---------------------------------------------------------------------------| 
B|---------------------------------------------------------------------------| 
G|--------------------------------4-4-4-4-4-4-4-4----------------------------| 
D|5-5-5-5-5-5-5-5-5-5-5-5-5-5-5-5-4-4-4-4-4-4-4-4-2-2-2-2-2-2-2-2-2-2-2-2-2-2| 
A|5-5-5-5-5-5-5-5-5-5-5-5-5-5-5-5-2-2-2-2-2-2-2-2-2-2-2-2-2-2-2-2-2-2-2-2-2-2| 
E|3-3-3-3-3-3-3-3-3-3-3-3-3-3-3-3-----------------0-0-0-0-0-0-0-0-0-0-0-0-0-0| 
p.m........................................................................... 

e|---------------------------------------------------------------------------| 
B|---------------------------------------------------------------------------| 
G|----------4-4-4-4----------------------------------------------------------| 
D|-5-5-5-5--4-4-4-4--2-2-2-2-2-2-2-2-----------------------------------------| 
A|-5-5-5-5--2-2-2-2--2-2-2-2-2-2-2-2-----------------------------------------| 
E|-3-3-3-3-----------0-0-0-0-0-0-0-0-----------------------------------------| 

=============================================================================== 
3.992 exibições
    • ½ Tom
    • A
    • Bb
    • B
    • C
    • Db
    • D
    • Eb
    • E
    • F
    • F#
    • G
    • Ab
  • Adicionar à lista

    0 comentários

    Ver todos os comentários

    Conseguiu tocar?

    0 Tocaram 0 Ainda não

    Grave um vídeo tocando Phoebe Cates e nos envie!

    00:00 / 00:00
    outros vídeos desta música
    repetir qualidade Automático
    Outros vídeos desta música
    00:00 / 00:00
    Automático

    Cifra Club Pro

    Aproveite o Cifra Club com benefícios exclusivos e sem anúncios
    Cifra Club Pro
    Aproveite o Cifra Club com benefícios exclusivos e sem anúncios
    OK