Notificações Amigos pendentes

      Fernanda Brum

      Espirito Santo

      329.398 exibições
      Tom: G
      Intro: G  G/B  C  G
      
         G
      E|---------------0------0-2-------2-3--3-2-----------
      B|-0----0--1--3--------------0-0-----------3---------
      G|------------------0-0------------------------------
      D|---------------------------------------0-----------
      A|---------------3--------2--------------------------
      E|-3--------------------------------0----------------
      
      
      E|-0-------------------------------------------------
      B|----1-0-1-0----------0-1--0-1-3--------------------
      G|-------------0--2--2-------------0-0---------------
      D|----------------0----------------------------------
      A|-0-0-------------------0------2----3---------------
      E|----------3----------------------------------------
      
      
               G
      E|-----------3-2--0----------------------------------
      B|-0-------3---------3-------------------------------
      G|---2-0-0-------------------------------------------
      D|---------------------------------------------------
      A|---------------------------------------------------
      E|-------3-----------3-------------------------------
      
      
      Primeira Parte:
                G     G/B      C9  G/B
      Espírito Santo, ore por mim
       Am7                  D7             G4 G  D7
      Leve pra Deus tudo aquilo que eu preci-so
                G     G/B       C9    G/B
      Espírito Santo, use as palavras
        Am7              D7              G4 G  Am7  G/B
      Que eu necessito usar, mas não consi-go
      Dedilhado - Primeira Parte:
      
         G                       G/B     C9
      E|---------------------------------------------------
      B|-----3-------3-------3-------3-------3-------------
      G|---0---0---0---0---0---0---0---0---0---0-----------
      D|---------------------------------------------------
      A|-------------------------2-------3-------3---------
      E|-3-------3-------3---------------------------------
      
      
                       G/B
      E|---------------------------------------------------
      B|---3-------3-------3-------------------------------
      G|-0---0---0---0---0---0-----------------------------
      D|---------------------------------------------------
      A|-------3-------2-----------------------------------
      E|---------------------------------------------------
      
      
         Am7             D7
      E|---------------------------------------------------
      B|-----1-------1-------1-------1---------------------
      G|---0---0---0---0---2---2---2---2-------------------
      D|-----------------0-------0-------------------------
      A|-0-------0-----------------------------------------
      E|---------------------------------------------------
      
      
         G4 G
      E|---------------------------------------------------
      B|-1-0-------1-------1-------------------------------
      G|-0-0-----2---2----2---2----------------------------
      D|-------0--------0----------------------------------
      A|---------------------------------------------------
      E|-3--3----------------------------------------------
      
      
         G4 G               Am7 G/B
      E|---------------------------------------------------
      B|-1--0----3-------3---1--3--------------------------
      G|-0--0--0---0---0---0-------------------------------
      D|---------------------------------------------------
      A|---------------------0--2--------------------------
      E|-3--3--------3-------------------------------------
      
      
      Segunda Parte:
           C9                  D/C
      Me ajude nas minhas fraquezas
           Bm              Em
      Não sei como devo pedir
                Am7     D7                Dm7 G G/B
      Espírito Santo, vem interceder por mim
      
       C9                B
      Todas as coisa cooperam pra o bem
          Em       D5(9)   A
      Daqueles que amam a ti
                Am7    D7           G
      Espírito Santo, vem orar por mim
      
         C7M             D/C
      E|-----0-------0-------2-------2---------------------
      B|---0---0---0---0---3---3---3---3-------------------
      G|---------------------------------------------------
      D|---------------------------------------------------
      A|-3-------3-------3-------3-------------------------
      E|---------------------------------------------------
      
      
         Bm              Em
      E|-----2-------2-------0-------0---------------------
      B|---3---3---3---3---0---0---0---0-------------------
      G|---------------------------------------------------
      D|---------------------------------------------------
      A|-2-------2-----------------------------------------
      E|-----------------0-------0-------------------------
      
      
         Am7             D7(9)
      E|-----0-------0-------0-------0---------------------
      B|---1---1---1---1---1---1---1---1-------------------
      G|---------------------------------------------------
      D|-----------------0-------0-------------------------
      A|-0-------0-----------------------------------------
      E|---------------------------------------------------
      
      
        Dm7              G        G/B
      E|-----1-------1-------------------------------------
      B|---1---1---1---1-------3-------3-------------------
      G|---------------------0---0---0---0-----------------
      D|-0-------0-----------------------------------------
      A|---------------------------2-----------------------
      E|------------------3--------------------------------
      
      
         C9               B
      E|---------------------------------------------------
      B|-----3-------3--------4-------4--------------------
      G|---0---0---0---0----4---4---4---4------------------
      D|---------------------------------------------------
      A|-3-------3--------2-------2------------------------
      E|---------------------------------------------------
      
      
         Em      D5(9)   A
      E|---------------------------------------------------
      B|-----0-------3-------2-------2---------------------
      G|---0---0---2---2---2---2---2---2-------------------
      D|---------0-----------------------------------------
      A|-----------------0-------0-------------------------
      E|-0-------------------------------------------------
      
      
         Am7              D7
      E|---------------------------------------------------
      B|-----1-------1--------1-------1--------------------
      G|---0---0---0---0----2---2---2---2------------------
      D|------------------0-------0------------------------
      A|-0-------0-----------------------------------------
      E|---------------------------------------------------
      
      
      Refrão:
                Em7            C9
      Estou clamando, estou pedindo
          G/B         Am7       D4(7)  G
      Só Deus sabe a dor que estou sentindo
               Em7         C9
      Meu coração  está ferido
             G/B    Am7   D4(7)   G
      Mas o meu clamor está    subindo
      Dedilhado - Refrão:
      
         G                Em7
      E|---------------------------------------------------
      B|-----3-------3--------3-------3--------------------
      G|---0---0---0---0----0---0---0---0------------------
      D|---------------------------------------------------
      A|---------------------------------------------------
      E|-3-------3--------0-------0------------------------
      
      
         C9      G/B      Am7      D4(7)
      E|---------------------------------------------------
      B|-----3-------3--------1--------1-------------------
      G|---0---0---0---0----0---0----0---0-----------------
      D|---------------------------0-----------------------
      A|-3-------2--------0--------------------------------
      E|---------------------------------------------------
      
      
      (Intro - variação na parte final do dedilhado)
      
      E|-----------3-2--0----------------------------------
      B|-0-----------------3--1--3-------------------------
      G|---2-0-0-------------------------------------------
      D|---------------------------------------------------
      A|----------------------0--2-------------------------
      E|-------3-----------3-------------------------------
      
      
      (Segunda Parte - A partir da 2ª estrofe)
      
      (Refrão)
      
      Dedilhado Final:
      
      E|----------0----------------------------------------
      B|-0-0-1-3---3--1------0-----------------------------
      G|-------------------2-------------------------------
      D|---------------0-----------------------------------
      A|---------------------------------------------------
      E|-3--------3-----------3----------------------------
      
      
        Composição: EyshilaColaboração e revisão:
        • tosim

        Comentários 43

        140 .
        140 cancelar
        0:00 / 0:00
        3 versões de Guitar Proformatodownloadscontribuição
        2 versões de partiturasformatodownloadscontribuição
        play/pausefechar subir/descer velocidade
        6ª corda E5ª corda A4ª corda D3ª corda G2ª corda B1ª corda E
          acordes
          publicidade
          fechar
          ok