Cifra Club

Redenção

Fernanda Brum

Cifra: Principal
exibições 266.352
Tom: F#
[Intro] G#m  E  B  Gb
        G#m  E  B  Gb

 G#m7(11)      B
Vivo estou
                    C#4     C#  C#4  C#
Pois um dia Ele morreu por mim
 G#m7(11)     B                  C#4    C#  C#4  C#
Livre estou   pois um dia condenado foi
C#/F   C#/F#       G#   Fm7        A#m7
Ele mesmo se entregou decidiu morrer
         G#
Foi por mim
D#         D#/G#        A#
  Toda iniqüidade ele levou
       A#/G    Cm   F/A  A#  D#/G  G#
Minha dívida pagou  me amou  redenção

C#m7            A
  Tudo foi por mim
 E                B
Derramou seu sangue
C#m7        A   E   B
  Não está ali  Ele ressuscitou
C#m7          A     E                     E/F#  F#
  Sangue carmesim  derramou  sua vida em mim
         A     G#    C#
Ninguém teve amor assim


[Solo] C#m7  A  E  B  D#m7  B  F#  E  B  C#m7

E|-------------------------------------------------------------------------------|
B|-9-9-9-9/10-10--------------------11-11-11-11/12-12--11-9-12-11--11-9-10-9-----|
G|------------------9-11-(11BEND)-10----------------------------------------11---|
D|---------------11--------------------------------------------------------------|
A|-------------------------------------------------------------------------------|
E|-------------------------------------------------------------------------------|

E|---------------------------------9-11-12----20---------------------------------|
B|-------------------------9-10-12-----------20-----20---------------------------|
G|-----8---8-9-8-9-11-9-11-------------------------------------------------------|
D|-9-11--11----------------------------------------------------------------------|
A|-------------------------------------------------------------------------------|
E|-------------------------------------------------------------------------------|

C#m7            A
  Tudo foi por mim
 E            B
Derramou seu sangue
 D#m7      B   F#    C#       D#m7
Não está ali  Ele ressucitou
             B   F#                   F#/G#  G#
Sangue carmesin derramou sua vida em mim
         B     A#    D#m7
Ninguem teve amor assim

D#m7      B/D#     C#/D#     D#m7
Ele vive  ele vive  ele vive  ele vive
 D#m7         B
Tudo foi por mim
Acordes para:

    0 comentários

      mostrar mais comentários

      Conseguiu tocar?

      11tocaram1ainda não

      Grave um vídeo tocando Redenção e mande pra gente!

      00:00 / 00:00
      outros vídeos desta música
      repetirqualidadeautomática
      Outro vídeos desta música
        00:00 / 00:00
        automática
        OK