Cifra Club

Saindo do Casulo

Fernanda Brum

Cifra: Principal (violão e guitarra)
Tom: D
Intro 2x: Bm A D G  Bm A G

Bm  A         D      G
   Saindo do meu conforto
Bm     A       G
   Eu vejo do alto
Bm    A       D           G
   Sonhando além dos meus sonhos
Bm       A         G
   Eu enxergo mais longe
Bm  A             D     G
   Rompendo com meus limites
Bm   A           G
   Até que eu alcance
Bm  A             D     G
   Mexendo com as estruturas
Bm  A          G
   Amplio horizontes

    Bm         A
   Digo a mim mesmo
                D           G
   O tempo é o tempo e não volta
               Bm          A
   Não há mais tempo a perder
    G
   Não mais (2x)

               D   A
   O Senhor desata
                    Bm           G
   Sou livre pra viver o Seu melhor
                   D
   Vencer o meu casulo
                  A
   O meu lugar seguro
                     Bm         G
   Fortalecer minhas asas pra voar  (2X)   Em F#m G

    Bm         A
   Digo a mim mesmo....

G         Em    F#m  G   Bm     A
   O meu voo é liberdade no Senhor
            Em
   Que me adestra
   F#m     G    Bm   A
   E me coloca pra voar

               E   B
   O Senhor desata
                   C#m           A
   Sou livre pra viver o Seu melhor
                   E
   Romper o meu casulo
                  B
   O meu lugar seguro
                    C#m         A
   Fortalecer minhas asas pra voar (2X)

Solo: E B C#m A

E|------------------------------------------------------------|
B|-10-10--9-0-----------12-10-9----------12-10-9------12-10-9-|
G|-----------11---9-11--------------11-11--------11-11--------|
D|------------------------------11----------------------------|
A|------------------------------------------------------------|
E|------------------------------------------------------------|

E|-16-14-12--12-12----------12------|
B|-----------12-12-10-10h12-12------|
G|----------------------------------|
D|----------------------------------|
A|----------------------------------|
E|----------------------------------|
                 E
   Romper o meu casulo
                  B     C#m  A
   O meu lugar seguro

Final 2x: C#m B E A C#m B A
exibições 16.306
Acordes para:
    Composição: Marcelo Manhãs Colaboração e revisão:
    • Rayanne Rodrigues

    0 comentários

    mostrar mais comentários

    Conseguiu tocar?

    3 tocaram 0 ainda não

    Grave um vídeo tocando Saindo do Casulo e mande pra gente!

    00:00 / 00:00
    outros vídeos desta música
    repetir qualidade Automático
    Outros vídeos desta música
    00:00 / 00:00
    Automático
    OK