Notificações Amigos pendentes

      Fernandinho

      A Alegria do Senhor

      515.039 exibições
      Tom: A#
      Intro: C5  Bb5  G5
      
      Riff 1 - Intro da Guitarra 1
      
      E|-------------------------------------------------------------|
      B|-------------------------------------------------------------| 
      G|--5-5-5-3--------5-5-5-3--------5-5-5-3----------------------|
      D|--5-5-5-3--------5-5-5-3--------5-5-5-3----------------------|
      A|--------------------------------------------1-0-1-0-1-0-1-0--|
      E|----------3-3-3----------3-3-3----------3---1-0-1-0-1-0-1-0--|
      
                                                    PM. . . . . . .
      
      Riff 2 - Guitarra 2
      
      E|-----13~~------|
      B|---------------|
      G|--12-----------|
      D|---------------|
      A|---------------|
      E|---------------|
      
      
      Riff 3 - Guitarra 2
      
      E|---------------|
      B|-----15~~------|
      G|--12-----------|
      D|---------------|
      A|---------------|
      E|---------------|
      
      
      Riff 4 - Guitarra 2
      
      E|-----11~~--|
      B|--13-------|
      G|-----------|
      D|-----------|
      A|-----------|
      E|-----------|
      
      
      Riff 5 - Guitarra 2
      
      E|-------------------|
      B|--13--15~~---------|
      G|-------------12~~--|
      D|-------------------|
      A|-------------------|
      E|-------------------|
      
      
      Riff 6 - Guitarra 2
      
      E|-----11~~------11-11-11-11-11-11-11-10-10-10-10--|
      B|--13------13---11-11-11-11-11-11-11-10-10-10-10--|
      G|-------------------------------------------------|
      D|-------------------------------------------------|
      A|-------------------------------------------------|
      E|-------------------------------------------------|
      
      
      Riff 7 - Guitarra 2 (junto com o refrão)
      
      E|------------------------------|-----------------------|
      B|-13-13-13-11-11-11------------|13-13-13-15-15-15-11~--|
      G|-------------------10-10--(3x)|-----------------------|
      D|------------------------------|-----------------------|
      A|------------------------------|-----------------------|
      E|------------------------------|-----------------------|
      
      
      Solo - Guitarra 2 (depois do refrão)
      
      E|--------------------|
      B|--------------------|
      G|-3-0~--5/7-5-3-0~~--|
      D|--------------------|
      A|--------------------|
      E|--------------------|
      
      
      Riff 8 - Guitarra 3 (com a banda tocado)
      
      E|-------------------------------------------------------------|
      B|-------------------------------------------------------------|
      G|--5-5-5-3--------5-5-5-3--------5-5-5-3----------------------|
      D|--5-5-5-3--------5-5-5-3--------5-5-5-3----------------------|
      A|--3-3-3-1--------3-3-3-1--------3-3-3-1----------------------|
      E|----------3-3-3----------3-3-3----------3---1-0-1-0-1-0-1-0--|
      
                                                   PM . . . . . . .
      
      
      ( Riff 1 - Guitarra 1) - começa com o riff 1.
      
      ( Riff 2 - Guitarra 2) - mas quando o Fernandinho começa a cantar são a Guitarra 1 e 2 com seus riffs.
      
      Vento sopra forte
                                 ( Riff 3 - Guitarra 2)
      Tuas águas não podem me afogar
      
      Vento sopra forte
                             ( Riff 2 - Guitarra 2)
      E em Suas mãos vou segurar
      
      
      OBS: Com a Banda toda.
      
      Gm  + ( Riff 3 - Guitarra 2)
      Vento sopra forte
                            ( Riff 2 - Guitarra 2)
      Tuas águas não podem me afogar
      
      Vento sopra forte
                           ( Riff 4 - Guitarra 2)
      E em Suas mãos vou segurar
      
      cm7                      ( Riff 5 - Guitarra 2)
       E Não me guio pelo que vejo
      Gm7                    ( Riif 6 - Guitarra 2)
      Mas eu sigo pelo que creio
      Cm7
      Eu não olho as circunstâncias
      Eb9             D9
      Eu vejo o Teu amor
      
      
      ( Riff 7 - Guitarra 2)
      G5             Bb5             Eb5       C5
      A Alegria do Senhor é a nossa força (4x)
      
         ( Solo na Guitarra 2)
      
              Bb5                  Eb5
      Essa alegria não vai mais sair
              C5                G5
      Essa alegria não vai mais sair
      Bb5                         Eb5
      Essa alegria não vai mais sair
         F5                Bb5
      De dentro do meu coração
      
      G5           Bb5             Eb5  C5 Bb5 (10X)faça o C5 e o Bb5 com um toque para baixo uma vez e Bb5 na primeira casa
      A Alegria do Senhor é a nossa força
      G5             Bb5             Eb5  C5 Bb5 G5
      A Alegria do Senhor é a nossa força
        Composição: FernandinhoColaboração e revisão:
        • Mathaeus
        • Pedro
        • p.emmanuel
        • jhonatan

        Comentários 24

        140 .
        • Denilson Denilson: Em 07/09/2015 19:41

          gerson rufino

        • Marcelo Marcelo: Em 24/12/2014 10:39

          No site SuperPartituras tem 40 partituras do Fernandinho, e de graça para baixar.

        • Guilherme Rudi de Guilherme Rudi de: Em 24/04/2014 15:11

          tem video aula no tv cifras no yuotube

        • Wilian Wilian: Em 04/04/2014 20:06

          musica muito legal mas pena q nao tem uma video aula e uma versao mais simples tbm!! mas legal

        • rosie rosie: Em 18/02/2014 15:36

          teste!

          • rosie rosie: Em 18/02/2014 15:36

            Comentário removido

        • Alisson Alisson: Em 20/01/2014 17:04

          otima musica

        • mariaraimunda.dasilvareis mariaraimunda.dasilvareis: Em 11/01/2014 12:35

          como a letra do hino nos diz a alegria Do Senhor e a nossa força

        • Natan Natan: Em 10/11/2013 15:47

          esses riffs tao errados pois a versao que aprendi é muito mais facil e esta certo

          • 123456789pedro1 123456789pedro1: Em 10/03/2014 16:38

            manda pro cifra club intao , vai q melhora pra mim hueahuea

        140 cancelar

        conseguiu tocar?

        • •••
        Serginho Goulart58.953 visualizações
          ver covers de outras músicas »
          0:00 / 0:00

          Capítulos

            2 versões de baixo exibições contribuição e correção
            1 versão de Guitar Proformatodownloadscontribuição
            play/pausefechar subir/descer velocidade
            6ª corda E5ª corda A4ª corda D3ª corda G2ª corda B1ª corda E
              acordes
              publicidade
              fechar
              ok