Cifra Club

Black Friday Cifra Club

Adestra

Fernandinho

Cifra: Principal (violão e guitarra)
tom: D
[Intro] Bm  G  E/G#  Em  D
        Bm  G  E/G#  Em  D

(Parte 1)

[Riff de abertura]

   Bm        G            E/G#       Em    D
E|-------------------------------------------|
B|-------------------------------------------|
G|-------------------------------------------|
D|-----------------------------------------0-|
A|-----------------------------------2-2-2-0-|
E|-7-7-7-7-7-3-3-3-3-3-3-3-4-4-4-4-4-0-0-0---|

   Bm        G             E/G#      Em    D B5/F#
E|---------------------------------------------|
B|---------------------------------------------|
G|---------------------------------------------|
D|-----------------------------------------0-4-|
A|-----------------------------------2-2-2-0-2-|
E|-7-7-7-7-7-3-3-3-3-3-3-3-4-4-4-4-4-0-0-0---2-|

B5/F#
Adestra minhas mãos para a batalha
Eu creio num Deus que nunca falha

Riff1]
E|--------------------------------------|
B|--------------------------------------|
G|--------------------------------------|
D|-9-9/7-7------------------------------|
A|------9-9-7-5-7/9---------------------|
E|--------------------------------------|

[Riff] 1)
Eu já fui moço, hoje estou velho
B5
Mas nunca vi o justo mendigar o pão

[Riff de abertura]

   Bm        G             E/G#      Em    D B5/F#
E|---------------------------------------------|
B|---------------------------------------------|
G|---------------------------------------------|
D|-----------------------------------------0-4-|
A|-----------------------------------2-2-2-0-2-|
E|-7-7-7-7-7-3-3-3-3-3-3-3-4-4-4-4-4-0-0-0---2-|

Riff2]

E|--------------------------------------|
B|--------------------------------------|
G|--------------------------------------|
D|--------------------------------------|
A|---------7/9---5/7---5/4--------------|
E|-7-9-10-7---7-9---7-5---5-------------|

Riff3]

   Em
E|------------------------------------|
B|------------------------------------|
G|--------------------------11-----14-|
D|-------------------------9--9---12--|
A|-7-5-7-5-7-5-7~-7-5-7-5-7-----/10---|
E|------------------------------------|

B5/F#
Mil ao meu lado cairão  (Riff 2)
Dez mil à direita fugirão
B5/F#
Eu não tenho medo do cão (Riff 2)
[Riff] 3)
Meu Pai é o leão, Ele é o leão

[Riff - 4]

   G5                      B5
E|-----------------------------------|
B|-----------------------------------|
G|-------------6-6-6-7-7-7-4-4-4-4-4-|
D|-5-5-5-5-5-5-------------4-4-4-4-4-|
A|-5-5-5-5-5-5-4-4-4-5-5-5-2-2-2-2-2-|
E|-3-3-3-3-3-3-----------------------|

                  G5
E|--------------------------------------|
B|--------------------------------------|
G|-9-9-9-11-11-11-----------6-6-6-7-7-7-|
D|----------------5-5-5-5-5-------------|
A|-7-7-7-9--9--9--5-5-5-5-5-4-4-4-5-5-5-|
E|----------------3-3-3-3-3-------------|

   D5
E|-----------------------------|
B|-----------------------------|
G|-7-7-7-7-7-11-11-11-14-14-14-|
D|-7-7-7-7-7-------------------|
A|-5-5-5-5-5-9--9--9--12-12-12-|
E|-----------------------------|

Riff5]

E|----------------------------|
B|----------------------------|
G|----------------------------|
D|----------------------------|
A|-7-5-7-5-7-5-7~-7-5-7-5-7/0-|
E|----------------------------|

[Riff] 4)
G                                   Bm
  Persegui meus inimigos e os alcancei os destruí, os atravessei
G                                     D
  Mas o Senhor é minha força, o meu escudo N'Ele confiarei
G                                  Bm
  Persegui meus inimigos e os alcancei os destruí, os atravessei
G                                     D (Riff)5)
  Mas o Senhor é minha força, o meu escudo N'Ele confiarei

[Riff de abertura]
   Bm        G             E/G#      Em    D B5/F#
E|---------------------------------------------|
B|---------------------------------------------|
G|---------------------------------------------| (2x)
D|-----------------------------------------0-4-|
A|-----------------------------------2-2-2-0-2-|
E|-7-7-7-7-7-3-3-3-3-3-3-3-4-4-4-4-4-0-0-0---2-|

Riff6]
E|-----------------|
B|-----------------|
G|-----------------|
D|-9-9/7-7-7-7/9-9-| 
A|------9-9-9------|
E|-----------------|

E|--------------------|
B|--------------------|
G|--------------------|
D|-9-9/7-7-7/6/4p6-4--|
A|------9-9-----------|
E|--------------------|

Riff7]
E|----------------------------|
B|-12-12/10--10--10--10/12-12-|
G|---------11--11--11---------|
D|----------------------------|
A|----------------------------|
E|----------------------------|

E|------------------------------|
B|-12-12/10--10--10/9/7p9-7/----|
G|---------11--11---------------|
D|------------------------------|
A|------------------------------|
E|------------------------------|

Riff3]
   Em
E|------------------------------------|
B|------------------------------------|
G|--------------------------11-----14-|
D|-------------------------9--9---12--|
A|-7-5-7-5-7-5-7~-7-5-7-5-7-----/10---|
E|------------------------------------|

[Riff] 6)
B5/F#
Mil ao meu lado cairão
Dez mil à direita fugirão

[Riff] 7)
Eu não tenho medo do cão
[Riff] 3)
                             Em
Meu Pai é o leão, Ele é o leão

[Riff - 4]
   G5                      B5
E|-----------------------------------|
B|-----------------------------------|
G|-------------6-6-6-7-7-7-4-4-4-4-4-|
D|-5-5-5-5-5-5-------------4-4-4-4-4-|
A|-5-5-5-5-5-5-4-4-4-5-5-5-2-2-2-2-2-|
E|-3-3-3-3-3-3-----------------------|

                  G5
E|--------------------------------------|
B|--------------------------------------|
G|-11-11-11-6-6-6-----------6-6-6-7-7-7-|
D|----------------5-5-5-5-5-------------|
A|-9--9--9--4-4-4-5-5-5-5-5-4-4-4-5-5-5-|
E|----------------3-3-3-3-3-------------|

   D5
E|-----------------------------|
B|-----------------------------|
G|-7-7-7-7-7-11-11-11-14-14-14-|
D|-7-7-7-7-7-------------------|
A|-5-5-5-5-5-9--9--9--12-12-12-|
E|-----------------------------|

Riff8]

E|-----------------|
B|-----------------|
G|-----------------|
D|-----------------|
A|-----------------|
E|-0-3-3/7~--------|


[Riff] 4)
G                                   Bm
  Persegui meus inimigos e os alcancei os destruí, os atravessei
G                                     D
  Mas o Senhor é minha força, o meu escudo N'Ele confiarei
G                                  Bm
  Persegui meus inimigos e os alcancei os destruí, os atravessei
G                                     D (Riff)8)
  Mas o Senhor é minha força, o meu escudo N'Ele confiarei

Riff9]
   H.A   H.A
E|----------|
B|----------|
G|----------|
D|----------| (3x)
A|----------|
E|-7~----3~-|

[Riff] 9

Você não foi feito pra ficar o dia todo em frente ao vídeo-game.
Você não foi feito pra ficar o dia inteiro atrás da internet sabendo da vida dos outros.
Você foi feito pra saquear o inferno e povoar os céus!
UOOOOOOOOOOOOOOOOOOOOOOOOOOO

[Solo] B5 G5 Em
       G5 A5 B5 D5
       G5 A5 F#5 

E|--------------------------|
B|--------------------------|
G|------------10/12---------|
D|------------10/12---------| (2x)
A|-10-12-13-10-----10-12-13-|
E|-10-12-13-10-----10-12-13-|

E|-----------------|
B|-----------------|
G|--------2/4------|
D|--------2/4------| (2x)
A|-2-4-5-4---2-4-5-|
E|-2-4-5-4---2-4-5-|

   Bm             G
E|---------------------------|
B|-----14/15p14-------9p10/7-|
G|---------------------------|
D|---16--------16/--10-------|
A|-14--------------9---------|
E|---------------------------|

       Em
E|--------------------------|
B|--------------------------|
G|-9p7-6b7-6b7-6b7-6b7b6----|
D|----------------------7/9-|
A|--------------------------|
E|--------------------------|

   G5          A5         B5
E|-7-----9-----10----12----14---19-|
B|-10b12-12b14-13b15-15b17-17b19---|
G|---------------------------------|
D|---------------------------------|
A|---------------------------------|
E|---------------------------------|

           D5
E|---------17------------|
B|-19b17/15--15/14-------|
G|----------------16-14/-|
D|-----------------------|
A|-----------------------|
E|-----------------------|

   G5          A5
E|-9/10-10/12-12/9-------------|
B|----------------/15-14-15-14-|
G|-6/7---7/9---9/6-------------|
D|-----------------------------|
A|-----------------------------|
E|-----------------------------|

   F#5
E|-15-13-12-13p12--12--------------|
B|---------------15--15-13-15-13---|
G|---------------------------------|
D|---------------------------------|
A|---------------------------------|
E|---------------------------------|

E|---------------------------------|
B|-12-13-12-10-13-12-10-12-10--10--|
G|---------------------------12----|
D|---------------------------------|
A|---------------------------------|
E|---------------------------------|

E|---------------------------------|
B|-12-10--10-----------------------|
G|------12--12-10--10-12-10--10----|
D|---------------12--------12--12--|
A|---------------------------------|
E|---------------------------------|
            F#5
E|-------------|
B|-------------|
G|------10-----|
D|-10-12-------|
A|--------12/9-|
E|-------------|

[Riff - 4]
   G5                      B5
E|-----------------------------------|
B|-----------------------------------|
G|-------------6-6-6-7-7-7-4-4-4-4-4-|
D|-5-5-5-5-5-5-------------4-4-4-4-4-|
A|-5-5-5-5-5-5-4-4-4-5-5-5-2-2-2-2-2-|
E|-3-3-3-3-3-3-----------------------|

                  G5
E|--------------------------------------|
B|--------------------------------------|
G|-9-9-9-11-11-11-----------6-6-6-7-7-7-|
D|----------------5-5-5-5-5-------------|
A|-7-7-7-9--9--9--5-5-5-5-5-4-4-4-5-5-5-|
E|----------------3-3-3-3-3-------------|

   D5
E|-----------------------------|
B|-----------------------------|
G|-7-7-7-7-7-11-11-11-14-14-14-|
D|-7-7-7-7-7-------------------|
A|-5-5-5-5-5-9--9--9--12-12-12-|
E|-----------------------------|

[Riff9]

E|------------------------------------|
B|------------------------------------|
G|------------------------------------|
D|------------------------------------|
A|-7-5-7-5-7-5-7~-7-5-7-5-7/9-9-9-9-9-|
E|------------------------------------|

[Riff] 4
G                                   Bm
  Persegui meus inimigos e os alcancei os destruí, os atravessei
G                                     D
  Mas o Senhor é minha força, o meu escudo N'Ele confiarei
G                                  Bm
  Persegui meus inimigos e os alcancei os destruí, os atravessei
G                                     D (Riff)9)
  Mas o Senhor é minha força, o meu escudo N'Ele confiarei

E|------------------------|
B|------------------------|
G|--------2/4-------------|
D|--------2/4-------------|
A|-2-4-5-2---2-4-5--2-2-2-|
E|-2-4-5-2---2-4-5--2-2-2-|
00:00 / 00:00
Outros vídeos desta música
Repetir
Outros vídeos desta música
Composição de Fernandinho
90.821 exibições
    • ½ Tom
    • A
    • Bb
    • B
    • C
    • Db
    • D
    • Eb
    • E
    • F
    • F#
    • G
    • Ab
  • Adicionar à lista

    0 comentários

    Ver todos os comentários

    Entre para oCifra Club PRO

    Tenha acesso a benefícios exclusivos no App e no Site

    • Chega de anúncios

    • Prioridade de compra em lançamentos

    • Mais recursos no app do Afinador

    • Atendimento Prioritário

    • Descontos nos produtos Cifra Club

    • Ajude a produzir mais conteúdo

    00:00 / 00:00

    Cifra Club Pro

    Aproveite o Cifra Club com benefícios exclusivos e sem anúncios
    Cifra Club Pro
    Aproveite o Cifra Club com benefícios exclusivos e sem anúncios
    OK