Cifra Club

Adestra

Fernandinho

Cifra: Principal (violão e guitarra)
Tom: D
[Intro]  Bm  G  E/G#  A9  E
         Bm  G  E/G#  A9  E

Bm7
Adestra minhas mãos para a batalha
Eu creio num Deus que nunca falha
Eu já fui moço, hoje estou velho
Mas nunca vi o justo mendigar o pão

( Bm  G  E/G#  A9  E )

Riff 1
E|-------------------------------------------------|
B|-------------------------------------------------|
G|-------------------------------------------------|
D|------------2h4------0h2-------------------------|
A|--2--4-5--2------2-2------2-2--5-4-0-2-----------|
E|-------------------------------------------------|
                   P.M      P.M

Riff 2
E|-------------------------------------------------|
B|-------------------------------------------------|
G|-------------------------------------------------|
D|------------2h4------0h2-------------------------|
A|--2--4-5--2------2-2------2-2--5-4-0-------------|
E|-------------------------------------------------|
                   P.M      P.M

Bm7
Mil ao meu lado cairão  (Riff 1)
Dez mil à direita fugirão
Eu não tenho medo do cão (Riff 2)
           Em
Meu pai é o leão
Ele é o leão

G                                    Bm7
Persegui meus inimigos e os alcan.....cei
        
Os destruí, os atravessei
G                               D
Mas o Senhor é minha força, o meu escudo
    A9
N'ele confiarei

G                                    Bm7
Persegui meus inimigos e os alcan.....cei
        
Os destruí, os atravessei
G                               D
Mas o Senhor é minha força, o meu escudo
    A9               Em     G
N'ele confiarei

( Bm  G  E/G#  A9  E )
( Bm  G  E/G#  A9  E )

Riff 1
E|-------------------------------------------------|
B|-------------------------------------------------|
G|-------------------------------------------------|
D|------------2h4------0h2-------------------------|
A|--2--4-5--2------2-2------2-2--5-4-0-2-----------|
E|-------------------------------------------------|
                   P.M      P.M

Riff 2
E|-------------------------------------------------|
B|-------------------------------------------------|
G|-------------------------------------------------|
D|------------2h4------0h2-------------------------|
A|--2--4-5--2------2-2------2-2--5-4-0-------------|
E|-------------------------------------------------|
                   P.M      P.M

Bm7
Mil ao meu lado cairão  (Riff 1)
Dez mil à direita subiirão
Eu não tenho medo do cão (Riff 2)
           Em
Meu pai é o leão
Cristo é o leão

G                                    Bm7
Persegui meus inimigos e os alcan.....cei
        
Os destruí, os atravessei
G                               D
Mas o senhor é minha força, o meu escudo
    A9
N'ele confiarei

G                                    Bm7
Persegui meus inimigos e os alcan.....cei
        
Os destruí, os atravessei
G                               D
Mas o senhor é minha força, o meu escudo
    A9               Em
N'ele confiarei

Riff 3
E|-------------------------------------------------|
B|-------------------------------------------------|
G|-------------------------------------------------|  (4x)
D|-------------4-----------------------------------|
A|---2--4-5--2----2--4-5---------------------------|
E|-------------------------------------------------|

[Solo]  Bm7  F#m  Em  G  A9  Bm7  D  G  A9  F#m

                                       (bends meio tom)
E|------------------------------------------------------------|
B|--------14-15--14-----------10--7---------------------------|
G|------------------------------------9-7--6b7r6b7r6b7r6b7-6--|
D|-----16-----------16-----11---------------------------------|
A|--14-------------------9------------------------------------|
E|------------------------------------------------------------|

E|----------7-------9-------10------12------------------------|
B|----------10b12---12b14---13b15---15b17---17b19-22p19r17p15-|
G|------------------------------------------------------------|
D|--7--7/9----------------------------------------------------|
A|------------------------------------------------------------|
E|------------------------------------------------------------|
   P.M                                              T.

E|------------------------------------------------------------|
B|----20b22p19r17p15------------15---------17----------19-----|
G|-------------------16~~-------------------------------------|
D|--------------------------/12---12/14-14----14/16-16--------|
A|------------------------------------------------------------|
E|------------------------------------------------------------|
        T.

E|---------------15-14-12-------------------------------------|
B|-------15-14------------15-14-12--11-12-14-12-11------------|
G|-------------------------------------------------11-12-11---|
D|-11/12------------------------------------------------------|
A|------------------------------------------------------------|
E|------------------------------------------------------------|

E|------------------------------------------------------------|
B|------------------------------------------------------------|
G|-9----------------------------------------------------------|
D|----12-11-9--8-9-11-9-8-------------------------------------|
A|-------------------------10-9-------------------------------|
E|------------------------------------------------------------|

                                     Bm7
Persegui meus inimigos e os alcan.....cei
        
Os destruí, os atravessei
G                               D
Mas o senhor é minha força, o meu escudo
    A9
N'ele confiarei

G                                    Bm7
Persegui meus inimigos e os alcan.....cei
        
Os destruí, os atravessei
G                               D
Mas o senhor é minha força, o meu escudo
    A9               Em   G
N'ele confiarei

Riff 3
E|-------------------------------------------------|
B|-------------------------------------------------|
G|-------------------------------------------------|
D|-------------4-----------------------------------|
A|---2--4-5--2----2--4-5---------------------------|
E|-------------------------------------------------|

( Bm7 )
exibições 64.313
Acordes para:
    Colaboração e revisão:

    0 comentários

    mostrar mais comentários

    Conseguiu tocar?

    9 tocaram 1 ainda não

    Grave um vídeo tocando Adestra e mande pra gente!

    00:00 / 00:00
    outros vídeos desta música
    repetir qualidade Automático
    Outros vídeos desta música
    00:00 / 00:00
    Automático
    OK