Cifra Club

Ainda Que a Figueira

Fernandinho

Cifra: Principal (violão e guitarra)
Tom: A (forma dos acordes no tom de G) Capotraste na 2ª casa
[Intro] Em  G  D9
        Em  G  D9

[Primeira Parte]

Em             D9
   Tu és a minha porção
Am7          C
    Tu és a minha herança
Em          D9
   Tu és o meu socorro
     Am7            C
Nos dias de tribulação

G                 D9
  Mesmo que meus pais me deixem
Am7             C
    Mesmo que amigos me traiam
G                      D9
  Eu sei que em Seus braços
      Am7         C
Eu encontro salvação

[Refrão]

 G                    D9
Ainda que a figueira não floresça
 Am7                     C
Ainda que a videira não dê o seu fruto
 G                     D9
Mesmo que não haja alimento nos campos
        F           C
Eu me alegrarei em Ti

 G                    D9
Ainda que a figueira não floresça
 Am7                     C
Ainda que a videira não dê o seu fruto
 G                     D9
Mesmo que não haja alimento nos campos
        F           C
Eu me alegrarei em Ti

( Em  G  D9 )
( Em  G  D9 )

[Primeira Parte]

Em             D9
   Tu és a minha porção
Am7          C
    Tu és a minha herança
Em          D9
   Tu és o meu socorro
     Am7            C
Nos dias de tribulação

G                 D9
  Mesmo que meus pais me deixem
Am7             C
    Mesmo que amigos me traiam
G                      D9
  Eu sei que em Seus braços
      Am7         C
Eu encontro salvação

[Refrão]

 G                    D9
Ainda que a figueira não floresça
 Am7                     C
Ainda que a videira não dê o seu fruto
 G                     D9
Mesmo que não haja alimento nos campos
        F           C
Eu me alegrarei em Ti

 G                    D9
Ainda que a figueira não floresça
 Am7                     C
Ainda que a videira não dê o seu fruto
 G                     D9
Mesmo que não haja alimento nos campos
        F           C
Eu me alegrarei em Ti

[Solo] Am7  G  D9
       Am7  G  D9
       Am7  G  D9
       Am7  G  D9  C

Parte 1 (2x)

E|------------------------------------------------------|
B|------------------------------------------------------|
G|-----2-2-----2-----2-2h4-2-----2--2-2-1-1-1-----------|
D|-2h4-----2h4---2h4---------2h4------------------------|
A|------------------------------------------------------|
E|------------------------------------------------------|

Parte 2

E|------------------------------------------------------|
B|----10-12b14-14r12-10-9-------------------------------|
G|-11---------------------9-9h11------------------------|
D|------------------------------------------------------|
A|------------------------------------------------------|
E|------------------------------------------------------|

Parte 3

E|-------------14---------------------------------------|
B|----10-12b14----10-9----------------------------------|
G|-11------------------9-9h11---------------------------|
D|------------------------------------------------------|
A|------------------------------------------------------|
E|------------------------------------------------------|

Parte 4

E|-------------9-9----9-12-12---------------------------|
B|-10----10-10-----10---------10------------------------|
G|----11------------------------------------------------|
D|------------------------------------------------------|
A|------------------------------------------------------|
E|------------------------------------------------------|

[Refrão Final]

 G                    D9
Ainda que a figueira não floresça
 Am7                     C
Ainda que a videira não dê o seu fruto
 G                     D9
Mesmo que não haja alimento nos campos
        F           C
Eu me alegrarei em Ti

 G                    D9
Ainda que a figueira não floresça
 Am7                     C
Ainda que a videira não dê o seu fruto
 G                     D9
Mesmo que não haja alimento nos campos
        F           C  G
Eu me alegrarei em Ti
exibições 1.951.986
Acordes para:
    Colaboração e revisão:

    0 comentários

    mostrar mais comentários

    Conseguiu tocar?

    358 tocaram 26 ainda não

    Grave um vídeo tocando Ainda Que a Figueira e mande pra gente!

    00:00 / 00:00
    outros vídeos desta música
    repetir qualidade Automático
    Outros vídeos desta música
    00:00 / 00:00
    Automático
    Capítulos
    • Tocando a música
    • Dicas Iniciais / Equipamentos
    • Acordes da Introdução
    • Tocando Introdução
    • Ensinando Ritmo da Introdução
    • Acordes da Primeira Parte
    • Tocando Primeira Parte
    • Acordes do Refrão
    • Tocando Refrão
    • Dicas e Base do Solo
    • Tocando Base do Solo
    • Dicas do Solo
    • Tocando Solo
    • Solo - Parte 1 de 4
    • Solo - Parte 2 de 4
    • Solo - Parte 3 de 4
    • Solo - Parte 4 de 4
    • Ensinando o Solo - Parte 1 de 4
    • Ensinando o Solo - Parte 2 de 4
    • Ensinando o Solo - Parte 3 de 4
    • Ensinando o Solo - Parte 4 de 4
    • Dicas Último Refrão
    • Tocando Último Refrão
    • Encerramento
    • Ficha Técnica
    OK