Cifra Club

Dançar Na Chuva

Fernandinho

Cifra: Principal
exibições 808.190
Tom: D
Introdução:

  P.M.   .      .      . .
E|-----------------------------------------------------|
B|-----------------------------------------------------|
G|-----7---5~------------------------------------------|  (8x)
D|-0-0-7-0-5~---0-6--5-3-5-6-5-3p----------------------|
A|-0-0---0------0-6--5-3-5-6-5-3p----------------------|
E|-----------------------------------------------------|


Primeira Parte:

D5
   Novo caminho para andar

Um novo sonho pra sonhar
                   G5/D       D5
O deserto não é o meu   lugar

Nova vida, Ele prometeu

A todo aquele que Nele crê
                        G5/D
O mar a nossa frente se abrirá


Primeiro Refrão:

D5/A                    A5/E
     Nova criatura, eu sou
                     B5/F#
O velho homem já morreu
                    A5/E
Vou dançar naquela terra
            G5
Que Ele prometeu
    D/F#     Em7  A5/E
Eu vou,  eu vou

D5/A                    A5/E
     Nova criatura, eu sou
                     B5/F#
O velho homem já morreu
                    A5/E
Vou dançar naquela terra
            G5
Que Ele prometeu
    D/F#     Em7  A5/E
Eu vou,  eu vou

(Riff 2)

  P.M .  .  .  .  .  .  .  .  .  .  .  .  . . . . . .
E|-----------------------------------------------------|
B|-----------------------------------------------------|
G|-----------------------------------------------------|
D|-----------------------------------------------------|
A|-2--2--4--5--2--2--4--5--2--2--4--5--2--2-2-2-2-2-2--|
E|-2--2--4--5--2--2--4--5--2--2--4--5--2--2-2-2-2-2-2--|

  P.M .  .  .  .  .  .  .  .
E|-----------------------------------------------------|
B|-----------------------------------------------------|
G|-----------------------------------------------------|
D|-----------------------------------------------------|
A|-2--2--4--5--2--2--4--5--2---------------------------|
E|-2--2--4--5--2--2--4--5--2---------------------------|
                       
Eu vou dançar na chuva
Eu vou dançar na chuva
Eu vou dançar na chuva


Interlúdio:

  P.M.   .      .      . .
E|-----------------------------------------------------|
B|-----------------------------------------------------|
G|-----7---5~------------------------------------------|  (4x)
D|-0-0-7-0-5~---0-6--5-3-5-6-5-3p----------------------|
A|-0-0---0------0-6--5-3-5-6-5-3p----------------------|
E|-----------------------------------------------------|


Segunda Parte:

D5
   Novo caminho para andar

Um novo sonho pra sonhar
                   G5/D       D5
O deserto não é o meu   lugar

Nova vida, Ele prometeu

A todo aquele que Nele crê
                        G5/D
O mar a nossa frente se abrirá


Segundo Refrão:

D5/A                    A5/E
     Nova criatura, eu sou
                     B5/F#
O velho homem já morreu
                    A5/E
Vou dançar naquela terra
            G5
Que Ele prometeu
    D/F#     Em7  A5/E
Eu vou,  eu vou

D5/A                    A5/E
     Nova criatura, eu sou
                     B5/F#
O velho homem já morreu
                    A5/E
Vou dançar naquela terra
            G5
Que Ele prometeu
    D/F#     Em7  A5/E
Eu vou,  eu vou

                       (Riff 2)
Eu vou dançar na chuva
Eu vou dançar na chuva
                       B5/F#
Eu vou dançar na chuva


Ponte: Vocalização

(Riff 3)  D5/A

  P.M .  .  .  .  .  .  .  .  .  .  .  .  .  .  .
E|-----------------------------------------------------|
B|-----------------------------------------------------|
G|-----------------------------------------------------|
D|-----------------------------------------------------|
A|-2--2--4--5--2--2--4--5--2--2--4--5--2--2--4--5------|
E|-2--2--4--5--2--2--4--5--2--2--4--5--2--2--4--5------|

  P.M .  .  .  .  .  .  .  .  .  .  .  .  .  .  .
E|-----------------------------------------------------|
B|-----------------------------------------------------|
G|-------------------------------------------------7---|
D|-------------------------------------------------7---|
A|-2--2--4--5--2--2--4--5--2--2--4--5--2--2--4--5--5---|
E|-2--2--4--5--2--2--4--5--2--2--4--5--2--2--4--5--5---|


Terceiro Refrão:


Nova criatura, eu sou
                     B5/F#
O velho homem já morreu
                    A5/E
Vou dançar naquela terra
            G5
Que Ele prometeu
    D/F#     Em7  A5/E
Eu vou,  eu vou

D5/A                    A5/E
     Nova criatura, eu sou
                     B5/F#
O velho homem já morreu
                    A5/E
Vou dançar naquela terra
            G5
Que Ele prometeu
    D/F#     Em7  A5/E
Eu vou,  eu vou
                       B5/F#
Eu vou dançar na chuva

0 comentários

    mostrar mais comentários

    Conseguiu tocar?

    141tocaram2ainda não

    Grave um vídeo tocando Dançar Na Chuva e mande pra gente!

    00:00 / 00:00
    outros vídeos desta música
    repetirqualidadeautomática
    Outro vídeos desta música
      00:00 / 00:00
      automática
      OK