Enviar cifraEntrar

Dançar Na Chuva

Fernandinho

Cifra: Principal
exibições 748.619
Tom: D
(intro)

(riff 1)

E|---------------------------------------------------------|
B|---------------------------------------------------------|
G|---------7-5---------------------------------------------|
D|---------7-5-6-5-3-5-6-5-3-5-----------------------------|   (8x)
A|-----5-5-----6-5-3-5-6-5-3-5-----------------------------|
E|-----5-5-------------------------------------------------|


 D
Novo caminho para andar,um novo sonho pra sonhar
                       G
O deserto não é o meu lugar
D
Uma nova vida Ele prometeu a todo aquele que Nele crê
                          G
O mar a nossa frente se abrirá

(refrão)
D              A                       Bm                    A
Nova criatura sou o velho homem já morreu vou dançar naquela terra que
         G       F#m      Em   A
Ele prometeu eu vou eu vou

D              A                     Bm                       A
Nova criatura sou o velho homem já morreu vou dançar naquela terra que
         G       F#m      Em   A
Ele prometeu eu vou eu vou

Eu vou dançar na chuvaaaaa!!!!!!

(riff 2 - 2x)

E|--------------------------------------------------------------|
B|--------------------------------------------------------------|
G|--------------------------------------------------------------|
D|--2-2--4-5---2-2--4-5--2-2--4-5-2-2-2---2-2--4-5---2-2--4-5--2|
A|--2-2--4-5---2-2--4-5--2-2--4-5—2-2-2---2-2--4-5---2-2--4-5--2|
E|--------------------------------------------------------------|


(repete tudo)

(riff 3 “baixo" - 6x)

E|--------------------------------------------------------------|
B|--------------------------------------------------------------|
G|--------------------------------------------------------------|
D|---------------7/9--------------------------------------------|
A|-----7/9------------------------------------------------------|
E|-7-7------7-7-------------------------------------------------|


E|--------------------------------------------------------------|
B|--------------------------------------------------------------|
G|--------------------------------------------------------------|
D|--9-9---9--8-8---8--7-7---7--6-6------------------------------|  (9x)
A|------9--------9--------9--------10-9-------------------------|
E|--------------------------------------------------------------|

(essa riff fica no fundo enquanto o Fernandinho fica falando dance, dance, dance...)
(quando ele grita dance, dance, dance!!!!  Fica em B )

(riff 2)

E|--------------------------------------------------------------|
B|--------------------------------------------------------------|
G|--------------------------------------------------------------|
D|--2-2--4-5---2-2--4-5--2-2--4-5--2-2--4-5--2-2--4-5-----------|  2x
A|--2-2--4-5---2-2--4-5--2-2--4-5--2-2--4-5--2-2--4-5-----------|
E|--------------------------------------------------------------|


                    D     (acaba esse riff com D )
E|--------------------------------------------------------------|
B|--------------------------------------------------------------|
G|--------------7-----------------------------------------------|
D|--------------7-----------------------------------------------|  2x
A|--------------5-----------------------------------------------|
E|--------------------------------------------------------------|


(refrão)
D              A                       Bm                    A
Nova criatura sou o velho homem já morreu vou dançar naquela terra que
         G       F#m      Em   A
Ele prometeu eu vou eu vou

D              A                     Bm                       A
Nova criatura sou o velho homem ja morreu vou dançar naquela terra que
         G       F#m      Em   A
Ele prometeu eu vou eu vou
                         Bm     (no final)
Eu vou dançar na chuvaaaaa!!!!!!
  • 1
  • 2
  • 3
  • 4
  • 5
  • 6
  • 7
  • 8
  • 9
  • 10
  • 11
  • 12
    Acordes para:

      0 comentários

        mostrar mais comentários

        Conseguiu tocar?

        138tocaram0ainda não

        Grave um vídeo tocando Dançar Na Chuva e mande pra gente!

        00:00 / 00:00
        outros vídeos desta música
        repetirqualidadeautomática
        • automática
        Outro vídeos desta música
          00:00 / 00:00
          automática
          • automática
          fecharplay/pause subir/descer velocidade
            acordes
            fechar
            OK
            Feedback