Cifra Club

Dançar Na Chuva

Fernandinho

Cifra: Versão 10
exibições 3.668
Tom: A
E|------------------------------------------INTRODUÇAO
B|------------------------------------------
G|------------7----------------------------- 
D|------------7--------6-5-3-5-6-5-3-5------
A|--5------------------6-5-3-5-6-5-3-5------
E|--5---------------------------------------


E na 4ª vez:

G|--------------------------------- 
D|-----------6-5-3-5-6-5-3--------- 
A|--5(...)---------------------3-5- 
E|--------------------------------- 

Depois de “...no deserto não é o meu lugar": 

G|------------------ 
D|--5-4-0-5-4------- 
A|------------------ 
E|------------------ 

Depois de “...nova vida ele prometeu": 

G|--55-77-99-77-55-77-55----------- 
D|--------------------------------- 
A|--------------------------------- 
E|--------------------------------- 

1ª Parte do Solo: (Fica fazendo isso) 

G|----------------------------------------------------------------------------- 
D|----------------7h9----------------7h9----------------7h9----------------7h9- 
A|------7h9----------------7h9----------------7h9---------------7h9------------ 
E|--77-------77--------77-------77--------77------77--------77------77--------- 

2ª Parte do Solo: 
G|-------------------------------- 
D|--99---9-1010---10-1111--1212-- 
A|-----8--------9--------10------ 
E|--------------------------------
Acordes para:
    Colaboração e revisão:
    • Gabriel Batista
    • cesar benetton

    0 comentários

      mostrar mais comentários

      Conseguiu tocar?

      0tocaram0ainda não

      Grave um vídeo tocando Dançar Na Chuva e mande pra gente!

      00:00 / 00:00
      outros vídeos desta música
      repetirqualidadeautomática
      Outro vídeos desta música
        00:00 / 00:00
        automática
        OK