Cifra Club

Eis-me Aqui

Fernandinho

Cifra: Principal
exibições 203.424
Tom: D
 (intro 2x)  Bm G D/F# A/C#

E|-9h10p9----9h10p9----10h12p10----12h14p12------| (2x)
B|--------10--------10----------10----------10---|
G|-----------------------------------------------|
D|-----------------------------------------------|
A|-----------------------------------------------|
E|-----------------------------------------------|

E|-9h10p9----9h10p9----10h12p10----12h14p12------|
B|--------10--------10----------10----------10-10|
G|-----------------------------------------------|
D|-----------------------------------------------|
A|-----------------------------------------------|
E|-----------------------------------------------|

Bm      G          Bm     A
Quero morrer pra mim mesmo
D      G          Bm     A
Quero levar a minha cruz
G        D/F#         Em   D/F#
Coisas velhas já passaram
G      D/F#         A
Vou seguir ao meu Jesus

        Bm
Eis me aqui
        G            D/F#         A
Eu quero ser afim de Deus, afim de Deus
        Bm
Eis me aqui
        G             D/F#        A/C#
Eu quero ser afim de Deus, afim de Deus
          F#m   Bm                F#m Bm
Arder em tua presença, de dia e de noite,
G        A              D
Estar a serviço do meu Rei!

( Bm G D/F# A/C# ) (2x)

E|-9h10p9----9h10p9----10h12p10----12h14p12------| (2x)
B|--------10--------10----------10----------10---|
G|-----------------------------------------------|
D|-----------------------------------------------|
A|-----------------------------------------------|
E|-----------------------------------------------|

E|-9h10p9----9h10p9----10h12p10----12h14p12------|
B|--------10--------10----------10----------10-10|
G|-----------------------------------------------|
D|-----------------------------------------------|
A|-----------------------------------------------|
E|-----------------------------------------------|
Acordes para:
    Colaboração e revisão:

    0 comentários

      mostrar mais comentários

      Conseguiu tocar?

      9tocaram0ainda não

      Grave um vídeo tocando Eis-me Aqui e mande pra gente!

      00:00 / 00:00
      outros vídeos desta música
      repetirqualidadeautomática
      Outro vídeos desta música
        00:00 / 00:00
        automática
        OK