Cifra Club

Black Friday Cifra Club

Emanuel

Fernandinho

Cifra: Principal (violão e guitarra)
tom: E
E|----------------------------------------------------|
B|----------------------------------------------------|
G|----------------------------------------------------|
D|----6-7-6---6-7-------------------------------------|
A|7--------7------------------------------------------|
E|----------------------------------------------------|

E|----------------------------------------------------|
B|---------------------------999----9--10-10-10---10--|
G|999----9---11-11-11---11------999--9--------999---9-|
D|---999--9--------999----9---------------------------|
A|----------------------------------------------------|
E|----------------------------------------------------|

E|----------------------------------------------------|
B|9-9-9-9-10-9----------------------------------------|
G|-9-9-9----------------------------------------------|
D|----------------------------------------------------|
A|----------------------------------------------------|
E|----------------------------------------------------|

E|----------------------------------------------------|
B|9-9-9-9-10-9----------------------------------------|
G|-9-9-9------9~--------------------------------------|
D|----------------------------------------------------|
A|----------------------------------------------------|
E|----------------------------------------------------|

E              B                  C#m  A
Deixou a Sua glória para estar comigo
E             B                C#m  A
Morreu numa cruz para estar comigo

E|----------------------------------------------------|
B|----------------------------------------------------|
G|-9-8-9-4-9-8-9--------------------------------------|
D|----------------------------------------------------|
A|----------------------------------------------------|
E|----------------------------------------------------|

E         B               G#m   A
Venceu o diabo para estar comigo
E          B               ( E  B  D  A )
O véu se rasgou para estar comigo

       E              B
Maravilhoso, Conselheiro, Deus forte
G#m          A
Príncipe da paz
       E              B
Maravilhoso, Conselheiro, Deus forte
G#m          A
Príncipe da paz
       E              B
Maravilhoso, Conselheiro, Deus forte
G#m         A
Príncipe da paz
       E              B
Maravilhoso, Conselheiro, Deus forte
G#m         A
Príncipe da paz

E        B        G#m  A
Emanuel, Emanuel, Emanuel

[Solo] E  B  C#m  A 
       E  B  C#m  A 

E              B                  C#m  A
Deixou a Sua glória para estar comigo
E             B                C#m  A
Morreu numa cruz para estar comigo
E         B               G#m   A
Venceu o diabo para estar comigo
E          B               ( E  B  D  A )
O véu se rasgou para estar comigo

       E              B
Maravilhoso, Conselheiro, Deus forte
G#m          A
Príncipe da paz
       E              B
Maravilhoso, Conselheiro, Deus forte
G#m          A
Príncipe da paz
       E              B
Maravilhoso, Conselheiro, Deus forte
G#m         A
Príncipe da paz
       E              B
Maravilhoso, Conselheiro, Deus forte
G#m         A
Príncipe da paz

E        B        G#m  A
Emanuel, Emanuel, Emanuel

[Solo] E  B  G#m  A

E|-------------------------|
B|-------------------------|
G|-9--9--8--8--4--4--6--6--|
D|-9--9--9--9--6--6--7--7--|
A|-------------------------|
00:00 / 00:00
Outros vídeos desta música
Repetir
Outros vídeos desta música
Composição de Fernandinho
691.742 exibições
  • Simplificar cifra
    • ½ Tom
    • A
    • Bb
    • B
    • C
    • Db
    • D
    • Eb
    • E
    • F
    • F#
    • G
    • Ab
  • Adicionar à lista

    0 comentários

    Ver todos os comentários

    Entre para oCifra Club PRO

    Tenha acesso a benefícios exclusivos no App e no Site

    • Chega de anúncios

    • Prioridade de compra em lançamentos

    • Mais recursos no app do Afinador

    • Atendimento Prioritário

    • Descontos nos produtos Cifra Club

    • Ajude a produzir mais conteúdo

    00:00 / 00:00

    Cifra Club Pro

    Aproveite o Cifra Club com benefícios exclusivos e sem anúncios
    Cifra Club Pro
    Aproveite o Cifra Club com benefícios exclusivos e sem anúncios
    OK