Cifra Club

Eu Fui Comprado

Fernandinho

Cifra: Principal (violão e guitarra)
Tom: C#
E|-------------------------|
B|-------------------------|
G|-------------------------|
D|-------------------------|
A|--4h6--4h6-4h6-4---------|
E|-----------------h6-4h6--|

  A#m                    C#
Eu fui comprado,   justificado
G#                 D#
A minha vida   foi paga lá na cruz
   A#m                    C#
 O meu passado,  Tá tudo pago
G#                    D#
 Foi apagado pelo meu Jesus

 A#m                       C#
 Eu fui comprado,   justificado
G#                    D#
 A minha vida   foi paga lá na cruz
  A#m                     C#
 O meu passado,   tá tudo pago
G#                   D#            F#
 Foi apagado pelo meu Jesus    heeee

Riff:
(durante todo o refrão)
E|---------------------------------------------|
B|---------------------------------------------|
G|---------------------------------------------|
D|---------------------------------------------|
A|-----------4-----7-6-4-----------------------|
E|-6-4-6-4h6---6-4------4----------------------|
 A#m
Todo mundo - pulando, pulando, pulando, pulando
        E
Na presença de Deus…
exibições 382.526

0 comentários

mostrar mais comentários

Conseguiu tocar?

35 tocaram 2 ainda não

Grave um vídeo tocando Eu Fui Comprado e mande pra gente!

00:00 / 00:00
outros vídeos desta música
repetir qualidade Automático
Outros vídeos desta música
00:00 / 00:00
Automático
OK