Cifra Club

Eu Fui Comprado

Fernandinho

Tab de baixo: Principal
exibições 23.128
(intro)
   
(primeira parte a guitarra faz sozinha com a bateria)

(baixo enta na 2ºparte)
G|------------------------------------|  
D|------------------------------------|  (4x)
A|---------4h-6-4h-6-4h-6-4-----------|  
E|-------------------------6-4h-6-----|  

Eu fui comprado... (guitarra e bateria)  

..o meu passado foi pago la na cruz...  

(riff)
G|--------------------------------------------------------------|  
D|---------6s-20-20---------------------------------------------|  
A|------------------18-18-16-16---------------------------------|  
E|------------------------------18-18-16-16--14-14-11-11-9-9-6-6|  

 A#m                       C#
 Eu fui comprado,   justificado
G#                    D#
 A minha vida   foi paga lá na cruz
  A#m                     C#
 O meu passado,   tá tudo pago
G#                   D#            F#
 Foi apagado pelo meu Jesus    heeee 

(refrão)
G|--------------------------------------------------------|  
D|--------------------------------------------------------|  
A|-----------------------4-----7-6-4----------------------|  
E|-------------6-4-6-4-6---6-4-------4--------------------|  

Eu fui comprado...  

depois da parte do "...foi pago la na cruz" tem um riff rapido

G|--------------------------------------------------------|  
D|----------13s-11----------11----------------------------|  
A|----------------13-11-------13~ ------------------------|  
E|----------------------13--------------------------------|  

"Todo mundo pulando, pulando, pulando..."  

(repete o 2º riff)

(Rap) 
G|-----------------------------------------|  
D|--------------8-8--6-6-------------------|  
A|----------------------X-6-7-8------------|  
E|----------6-6----------------------------|  

(parte que ele Fala "OUÇA")

G|------------------17---------------|  
D|------------------16---------------|  
A|-----------------------------------|  
E|-----------------------------------|  

(Samba)
G|------------------------------------------------------------------------|  
D|---------------------------------------------------5h6--5---5h6-5-------|  
A|----------------6h8--6---6h8-6-4-6-8-------------------------------6--8-|  
E|-6--6-x-6-8-9------------------------6--6-x-6-8-9-----------------------|  


(Refrão)
Colaboração e revisão:

0 comentários

    mostrar mais comentários

    Conseguiu tocar?

    3tocaram0ainda não

    Grave um vídeo tocando Eu Fui Comprado e mande pra gente!

    00:00 / 00:00
    outros vídeos desta música
    repetirqualidadeautomática
    Outro vídeos desta música
      00:00 / 00:00
      automática
      OK