Cifra Club

Faz Chover

Fernandinho

Cifra: Principal
exibições 2.752.559
Tom: D
E|---------------------------------------------|
B|----2--2/3-----------------------------------|
G|-4------------------------2------------------|
D|------------4--5~--4--5-----5--4---2~--------|
A|---------------------------------------------|
E|---------------------------------------------|

E|--------------------------2--2--2/3--2-------|
B|----2--2/3---------3--5-----------------5~---|
G|-4-------------------------------------------|
D|------------4--5~----------------------------|
A|---------------------------------------------|
E|---------------------------------------------|


Intro: Bm  G  D  A9  Bm  G  D  A9  G9

   D                  A9      Bm
Assim como a corça anseia por água
 G          D9/F#   Em       A9/C#
Como terra seca precisa da chuva
     G  A9       D9/F#   G
Meu coração tem sede de ti
     D          A9
Rei meu e Deus meu

Refrão:

        Bm  G      D     A9
Faz chover,    Senhor Jesus
          Bm  G          A9
Derrama chuva   neste lugar
             Bm  G     D     A9
Vem com teu rio    Senhor Jesus
     Bm  G          A9
Inundar  o meu coração

(Solo)  Bm7 G5 D9 A4 Bm7 G5 D9 A4 G5 A4 B5 E4 E

       C#m  A      E     B9
Faz chover,    Senhor Jesus
         C#m  A          B9
Derrama chuva   neste lugar
            C#m  A     E     B9
Vem com teu rio    Senhor Jesus
    C#m  A          B9
Inundar  o meu coração

0 comentários

    mostrar mais comentários

    Conseguiu tocar?

    420tocaram7ainda não

    Grave um vídeo tocando Faz Chover e mande pra gente!

    00:00 / 00:00
    outros vídeos desta música
    repetirqualidadeautomática
    Outro vídeos desta música
      00:00 / 00:00
      automática
      Capítulos
      • Início
      • Acordes da música
      • Tocando trecho da música
      • Ensinando ritmo da música
      • Encerramento
      OK