Cifra Club

Galileu

Fernandinho

Tab de baixo: Principal
[Intro]

Baixo entra junto com a Guitarra

G|-------------------------------------|
D|-------------------------------------|
A|-------------------------------------|
E|--6-6-6-6-6-6-6-6-6-2-2-2-2-2-2-2-2--|

G|-------------------------------------|
D|-------------------------------------|
A|-------------------------------------|
E|--6-6-6-6-6-6-6-6-6-2-2-2-2-2-2-2-2--|

[Verso]

Sugestão Na parte: Eu não mereço
G|------------------------------------------------------|
D|------------------------------------------------------|
A|---18—18/-----16------/-------------------------------|   
E|----------14-------16---------------------------------|

[Pré-Refrão]

G|-------------------------------------------------|
D|-------------------------------------------------|
A|-6--6--6--6--------------4--4--4--4--------------|
E|-------------2--2--2--2--------------4--4--4--4--|

G|-------------------------------------------------|
D|-------------------------------------------------|
A|-6--6--6--6--------------------------------------|
E|-------------2--2--2--2--6--6--6--6--4--4--4--4--|

G|-------------------------------------------------|
D|-------------------------------------------------|
A|-------------------------4--4--4--4--------------|
E|-6--6--6--6--2--2--2--2--------------4--4--4--4--|

G|-------------------------------------------------|
D|-------------------------------------------------|
A|-------------------------4--4--4--4--------------|
E|-6--6--6--6--2--2--2--2--------------4--4--4--4--|

[Refrão]

G|----------------------------------------------------------------------|
D|---------------------------------------------------------------4\6h8--|
A|-6-6-6-6-6-6-6-6-------------------4-4-4-4-4-4-4-4------------4-------|
E|-----------------2-2-2-2-2-2-2-2-2-----------------4-4-4-4-4-4--------|

G|----------------------------------------------------------------------------------|
D|---------------------------------------------------------------------------11h13--|
A|-6-6-6-6-6-6-6-6--9-9-9-9-9-9-9-9-------------------11-11-11-11-11-11-11h13-------|
E|-----------------------------------9-9-9-9-9-9-9-9--------------------------------|
G|----------------------------------------------------------------------|
D|---------------------------------------------------------------4\6h8--|
A|-6-6-6-6-6-6-6-6-------------------4-4-4-4-4-4-4-4------------4-------|
E|-----------------2-2-2-2-2-2-2-2-2-----------------4-4-4-4-4-4--------|
G|----------------------------------------------------------------------------------|
D|---------------------------------------------------------------------------11h13--|
A|-6-6-6-6-6-6-6-6--9-9-9-9-9-9-9-9-------------------11-11-11-11-11-11-11h13-------|
E|-----------------------------------9-9-9-9-9-9-9-9--------------------------------|

[Intro]

G|-------------------------------------|
D|-------------------------------------|
A|-------------------------------------|
E|--6-6-6-6-6-6-6-6-6-2-2-2-2-2-2-2-2--|

G|-------------------------------------|
D|-------------------------------------|
A|-------------------------------------|
E|--6-6-6-6-6-6-6-6-6-2-2-2-2-2-2-2-2--|

[Pré-Refrão] 

G|-------------------------------------------------|
D|-------------------------------------------------|
A|-6--6--6--6--------------4--4--4--4--------------|
E|-------------2--2--2--2--------------4--4--4--4--|

G|-------------------------------------------------|
D|-------------------------------------------------|
A|-6--6--6--6--------------------------------------|
E|-------------2--2--2--2--6--6--6--6--4--4--4--4--|

G|-------------------------------------------------|
D|-------------------------------------------------|
A|-------------------------4--4--4--4--------------|
E|-6--6--6--6--2--2--2--2--------------4--4--4--4--|

G|-------------------------------------------------|
D|-------------------------------------------------|
A|-------------------------4--4--4--4--------------|
E|-6--6--6--6--2--2--2--2--------------4--4--4--4--|

[Refrão]

G|----------------------------------------------------------------------|
D|---------------------------------------------------------------4\6h8--|
A|-6-6-6-6-6-6-6-6-------------------4-4-4-4-4-4-4-4------------4-------|
E|-----------------2-2-2-2-2-2-2-2-2-----------------4-4-4-4-4-4--------|

G|----------------------------------------------------------------------------------|
D|---------------------------------------------------------------------------11h13--|
A|-6-6-6-6-6-6-6-6--9-9-9-9-9-9-9-9-------------------11-11-11-11-11-11-11h13-------|
E|-----------------------------------9-9-9-9-9-9-9-9--------------------------------|
G|----------------------------------------------------------------------|
D|---------------------------------------------------------------4\6h8--|
A|-6-6-6-6-6-6-6-6-------------------4-4-4-4-4-4-4-4------------4-------|
E|-----------------2-2-2-2-2-2-2-2-2-----------------4-4-4-4-4-4--------|
G|----------------------------------------------------------------------------------|
D|---------------------------------------------------------------------------11h13--|
A|-6-6-6-6-6-6-6-6--9-9-9-9-9-9-9-9-------------------11-11-11-11-11-11-11h13-------|
E|-----------------------------------9-9-9-9-9-9-9-9--------------------------------|

[Final]

G|--------------------------------------------------------------------------------|
D|--------------------------------------------------------------------------------|
A|--------------------------------------------------------------------------------|
E|-2-2-2-2-2-2-2-2--4-4-4-4-4-4-4-4--6-6-6-6-6-6-6-6--10-10-10-10-10-10-10-10-10--|

[Refrão]

G|-------------------------|
D|-------------------------|
A|-6-----------4-----------|
E|-------2-----------4-----|

G|--------------------------|
D|--------------------------|
A|-6-----9-----------11-----|
E|-------------9------------|

G|----------------------------------------------------------------|
D|----------------------------------------------------------------|
A|-6-6-6-6-6-6-6-6-------------------4-4-4-4-4-4-4-4--------------|
E|-----------------2-2-2-2-2-2-2-2-2-----------------4-4-4-4-4-4--|

G|-----------------------------------------------------------------------------|
D|-----------------------------------------------------------------------------|
A|-6-6-6-6-6-6-6-6--9-9-9-9-9-9-9-9-------------------11-11-11-11-11-11-11-----|
E|-----------------------------------9-9-9-9-9-9-9-9------------------------2--|
00:00 / 00:00
Outros vídeos desta música
Repetir
Outros vídeos desta música
Composição de Fernandinho
Colaboração e revisão:
  • Marcelo Araujo
7.603 exibições

0 comentários

Ver todos os comentários

Entre para oCifra Club PRO

Tenha acesso a benefícios exclusivos no App e no Site

  • Chega de anúncios

  • Prioridade de compra em lançamentos

  • Mais recursos no app do Afinador

  • Atendimento Prioritário

  • Descontos nos produtos Cifra Club

  • Ajude a produzir mais conteúdo

00:00 / 00:00

Cifra Club Pro

Aproveite o Cifra Club com benefícios exclusivos e sem anúncios
Cifra Club Pro
Aproveite o Cifra Club com benefícios exclusivos e sem anúncios
OK