Cifra Club

Há Um Rio

Fernandinho

Cifra: Principal
exibições 377.703
Tom: C
Intro:

E|--------------------------------------------|
B|--------------------------------------------|
G|---------9---10------10-9------9-7----------|
D|---7--10---7----10-7------10-7-----9----9---| (6x)
A|-------------------------------------10-----|
E|--------------------------------------------|

  PM..................
E|--------------------------------------------|
B|--13--10-12-13-----10-12-13-----10-12-13-10-|
G|---------------10-----------9---------------|
D|--------------------------------------------| (2x)
A|--------------------------------------------|
E|--------------------------------------------|

Am       F          C        G
   Há um rio cujas águas são limpas.
Am       F          C         G
   Há um rio cujas fontes não cessam.
Am       F        C        G       Am F C G
   Há um rio que corre do Trono de Deus.
Am       F          C           G
   Há um rio que desceu de Sua Glória.
Am       F          C        G
   Há um rio que morreu numa cruz.
Am        F              c     G      Am F C G
   E esse rio ao terceiro dia ressucitou!

Refrão:

         Am F C G      Am F C G
Eu vou mergulhar nos Teus rios .
         Am F C G      Am F C G
Eu vou mergulhar nas Suas fontes .

Solo:

E|------------------------------------------------|
B|-----10-13-10--13-12-8-8h10-8----------------10-|
G|---------------------------9-7-5-5h7-9h7-5------|
D|---10-------------------------------------------|
A|------------------------------------------------|
E|------------------------------------------------|

    Am       F        C          G          Am     F        C  G
Me limpa, me sara, me cura, transforma, restaura o meu coração
    Am       F        C        G           Am      F        C  G
Me limpa, me sara, me cura, restaura, transforma o meu coração
    Am       F        C        G           Am      F        C  G
Me limpa, me sara, me cura, restaura, transforma o meu coração
    Am       F        C          G          Am     F        C  G
Me limpa, me sara, me cura, transforma, restaura o meu coração

Riff:

     PM...                              PM...
E|--------------------------------|------------------------------|
B|--------------------------------|------------------------------|
G|--------------------------------|------------------------------|  (2x)
D|--------------------------------|------------------------------|
A|--------------3---4---5---6-----|------------3---2-------------|
E|---5-3-5------------------------|-5-3-5--------------3---5-----|

Triades:

                    Am                      F                       C
E|---12--8-------12--8-------13--8-------13--8-------15-12-------15--12---12--|
B|---------10----------10----------10----------10----------13----------13-----|
G|----------------------------------------------------------------------------| (4x)
D|----------------------------------------------------------------------------|
A|----------------------------------------------------------------------------|
E|----------------------------------------------------------------------------|
                  G
E|-10--7-------10--7-----7-|
B|--------8-----------8----|
G|-------------------------|
D|-------------------------|
A|-------------------------|
E|-------------------------|

Solo:

E|-----------8--------------------------------------------------|
B|------8-10---10--10-13-12-8-10-/10-10-5--------5--------------|
G|--7-9------------------------------------7-5-7----5/12~~~-----|
D|--------------------------------------------------------------|
A|--------------------------------------------------------------|
E|--------------------------------------------------------------|
Acordes para:

    0 comentários

      mostrar mais comentários

      Conseguiu tocar?

      76tocaram4ainda não

      Grave um vídeo tocando Há Um Rio e mande pra gente!

      00:00 / 00:00
      outros vídeos desta música
      repetirqualidadeautomática
      Outro vídeos desta música
        00:00 / 00:00
        automática
        OK