Cifra Club

Sara-me

Fernandinho

Cifra: Principal
exibições 156.417
Tom: C
 Intro: C  F  Am  G   C  F  Am  G
E|------------------------------------------3----|
B|----5--------3-------5------3-------5h6-6------|
G|------5--------5-------5------5----------------|
D|---------5-------5-------5------5--------------|
A|-----------------------------------------------|
E|-----------------------------------------------|

E|-----------------------------------------------|
B|----5------------------5-------------------8---|
G|------5--------7-5------5-----7-5-------7------|
D|---------7---------5-------5-------5-----5-----|
A|-----------------------------------------------|
E|-----------------------------------------------|

  C                 F            C     F
O mesmo Jesus que andou em Jerusalém
  C                 F            C   G
O mesmo Jesus que andou pela Judéia
  C                 F         Am   G
O mesmo Jesus que andou em Jericó

    Dm               Am         G
É o mesmo Jesus que está aqui agora
    Dm               Am         G
É o mesmo Jesus que está aqui agora

     C   F      Am  G
Sará-me,   curá-me
  Dm                     Am
E basta uma palavra que saia
                  G
Do teu trono de amor

           C   F                    Am   G
Filho de Davi,   tenha compaixão de mim
 Dm            Am                   G
Assim como Bartimeu, Eu quero ser curado

  C    F                 Am    G
Jesus,   quero ouvir tua voz
Dm               Am                 G
toma teu leito e anda tua fé te salvou
Dm               Am       G         C
toma teu leito e anda tua fé te salvou

Intro 2x:  C  F  Am  G

(repete tudo)

Ministração:  Am  Em  F  G
Acordes para:
    Colaboração e revisão:

    0 comentários

      mostrar mais comentários

      Conseguiu tocar?

      10tocaram0ainda não

      Grave um vídeo tocando Sara-me e mande pra gente!

      00:00 / 00:00
      outros vídeos desta música
      repetirqualidadeautomática
      Outro vídeos desta música
        00:00 / 00:00
        automática
        OK