Cifra Club

Seu Sangue

Fernandinho

Cifra: Principal (violão e guitarra)
tom: A
[Intro] F#m

E|-12----------------12---------------------|
B|----10-12------10-----10-12------10-------|
G|----------9-11--------------9-11----------| (3x)
D|------------------------------------------|
A|------------------------------------------|
E|------------------------------------------|

[Primeira Parte] 

A9           E
  Seu sangue, Sua cruz
F#m              D
    Me levam de volta pra Deus
A9           E
   Sua morte,  Sua vida
F#m           D  
    As trevas,  ele já venceu

E5             D5        E5            D5
  Seu amor me conquistou,  sou eterno devedor

[Segunda Parte] 

G              D
  O véu se rasgou
                    F#m
Sua luz em mim brilhou
                  E                  
Sua glória me cobriu 
                      Bm  E
Mais que vencedor eu sou
                      Bm  E
Mais que vencedor eu sou

[Refrão] 

A9                            E 
  Sei que na sala do trono está
                 F#m
Eu quero ir pra lá
             D9 
Pelo novo e vivo caminho

A9                            E 
  Sei que na sala do trono está
                 F#m
Eu quero ir pra lá
             D9 
Pelo novo e vivo caminho

[Solo] F#m

E|-12----------------12---------------------|
B|----10-12------10-----10-12------10-------|
G|----------9-11--------------9-11----------| (2x)
D|------------------------------------------|
A|------------------------------------------|
E|------------------------------------------|

[Primeira Parte] 

A9           E
  Seu sangue, Sua cruz
F#m              D
    Me levam de volta pra Deus
A9           E
   Sua morte,  Sua vida
F#m           D  
    As trevas,  ele já venceu

E5             D5        E5            D5
  Seu amor me conquistou,  sou eterno devedor

[Segunda Parte] 

G              D
  O véu se rasgou
                    F#m
Sua luz em mim brilhou
                  E                  
Sua glória me cobriu 
                      Bm  E
Mais que vencedor eu sou
                      Bm  E
Mais que vencedor eu sou

[Refrão] 

A9                            E 
  Sei que na sala do trono está
                 F#m
Eu quero ir pra lá
             D9 
Pelo novo e vivo caminho

A9                            E 
  Sei que na sala do trono está
                 F#m
Eu quero ir pra lá
             D9 
Pelo novo e vivo caminho

A9                            E 
  Sei que na sala do trono está
                 F#m
Eu quero ir pra lá
             D9 
Pelo novo e vivo caminho

[Ponte]

E|-12p9-------------------------------------|
B|------10----12p9--10------------10-9------|
G|---------11----------11p9----11-----------|
D|--------------------------12--------------|
A|------------------------------------------|
E|------------------------------------------|

A9                            E 
  Sei que na sala do trono está
                 F#m
Eu quero ir pra lá
             D9 
Pelo novo e vivo caminho

[Final] F#m

E|-12----------------12---------------------|
B|----10-12------10-----10-12------10-------|
G|----------9-11--------------9-11----------| (2x)
D|------------------------------------------|
A|------------------------------------------|
E|------------------------------------------|
00:00 / 00:00
Outros vídeos desta música
Repetir
Outros vídeos desta música
Compositor não encontrado.
1.415.346 exibições
  • Simplificar cifra
    • ½ Tom
    • A
    • Bb
    • B
    • C
    • Db
    • D
    • Eb
    • E
    • F
    • F#
    • G
    • Ab
  • Adicionar à lista

    0 comentários

    Ver todos os comentários

    Entre para oCifra Club PRO

    Tenha acesso a benefícios exclusivos no App e no Site

    • Chega de anúncios

    • Prioridade de compra em lançamentos

    • Mais recursos no app do Afinador

    • Atendimento Prioritário

    • Descontos nos produtos Cifra Club

    • Ajude a produzir mais conteúdo

    00:00 / 00:00

    Cifra Club Pro

    Aproveite o Cifra Club com benefícios exclusivos e sem anúncios
    Cifra Club Pro
    Aproveite o Cifra Club com benefícios exclusivos e sem anúncios
    OK