Cifra Club

Te Adorar

Fernandinho

Cifra: Principal
exibições 433.202
Tom: D
(intro teclado 1x) Bm G/B    A
(Bateria)    Bm      G/B     A
(Solo)       Bm      G/A      A
            
(solo)
                        Bm                G/B                           A
E|----------------------------------------------------------------||
B|--------------------------10~-----------------------------------||
G|------------------11~-9~-------11~-11~------11x-11x-10/11-9~-9~-||
D|-0x-0x-9\7/9-9~-------------------------------------------------||
A|----------------------------------------------------------------||
E|----------------------------------------------------------------||
                            Bm          G/B           A
E|-----------------------------------------------------------||
B|------------------12/14-14------10--------------7/8/10_10~-||
G|---------------11----------14-9----11~-11~- -10------------||
D|-0x-0x-9-7-9~----------------------------------------------||
A|-----------------------------------------------------------||
E|-----------------------------------------------------------||
                   A
E|--------------------------------------------||
B|--12/14-14/15-14----------------------------||
G|-----------------14-------------------------||
D|--------------------14-12-11----------------||
A|-----------------------------12-------------||
E|--------------------------------12-10-9~ /0-||

           Bm      G/A      A
           Bm      G/A      A A

   D     A/C#           Bm         A
o sol, a lua,  as estrelas e o mar
            Em           Bm        A
nada se compara ante a sua formosura
    D           A/C#          Bm           A
os homens, os reinos, principados e potestades
    Em              Bm      A
se prostram ante a sua majestade
                Em        Bm                 A
porque d'Ele por Ele para Ele são todas as coisas
                Em        Bm                 A
porque d'Ele por Ele para Ele são todas as coisas
              Bm D/F# G     D    A
só me resta te adorar, te adorar
              Bm D/F# G     D    A
eu nasci pra te adorar, te adorar
               Em       Bm              A
e dizer que te amo, te amo te amo, te amo
               Em       Bm              A
e dizer que te amo, te amo te amo, te amo

(solo)

      Bm  A  G  D  E  Bm G  Bm  G  G  D  D

(solo)
                                                                Bm
E|---------------------------------------------------------||
B|-------------------------------------12-14-14/15~--12----||
G|-------------------11-11-12-12-14-14-----------------12~-||
D|-11-11-12-12-14-14---------------------------------------||
A|---------------------------------------------------------||
E|---------------------------------------------------------||
                       A               G                       D/F#
E|---------------------------------------------------------||
B|-12/15\14~---------10-10h12~-10~-12~-10~-10/12~----------||
G|-----------11-11~-------------------------------14~--14~-||
D|---------------------------------------------------------||
A|---------------------------------------------------------||
E|---------------------------------------------------------||
                          E                      Bm
E|-----------------------------------------------------||
B|------------------12b~---15/17b~-15b~-15b~-15b~-15b~-||
G|----12-11-----13~------------------------------------||
D|-12-------14~----------------------------------------||
A|-----------------------------------------------------||
E|-----------------------------------------------------||
                  G/B                             Bm         G/B
E|-------------------------------------------------||
B|-------15----14----12----10----------------------||
G|----------------------------12----11~-9/11----9~-||
D|-11/12----12----12----12-------12----------12----||
A|-------------------------------------------------||
E|-------------------------------------------------||
                 G/B       D9 D
E|------------------||
B|------------------||
G|------------------||
D|------------------||
A|-11/12-12~-11-12~-||
E|------------------||

0 comentários

    mostrar mais comentários

    Conseguiu tocar?

    22tocaram0ainda não

    Grave um vídeo tocando Te Adorar e mande pra gente!

    00:00 / 00:00
    outros vídeos desta música
    repetirqualidadeautomática
    Outro vídeos desta música
      00:00 / 00:00
      automática
      OK