Cifra Club

Teus Sonhos

Fernandinho

Cifra: Principal
exibições 543.750
Tom: C
Intro: Em G (2x)

E|------------------------------------------
B|------------------------------------------
G|-------------4h5p4------------------------
D|-4/5~-4-5-7~-------7-5-4-5~-5~-4-5-7~-----
A|------------------------------------------
E|------------------------------------------

Em                G
Guarda o meu coração oh Deus
Em                G
Guarda o meu coração
                  Am
de fazer minha vontade
                  D
De viver pra mim mesmo  ( bis)

C9                      G      D
Quão insondáveis são os teus caminhos
C9                   G      D
Inescrutáveis são os teus juízos

         Em         G
Minha vontade já deixei
       C           D
O teu Reino já ganhei
          Em        G
Minha vontade já deixei
       C           D
O teu Reino já ganhei

         G            C               D
Os teus sonhos são maiores do que os meus
          Em               C               D
Os teus caminhos bem mais altos do que os meus
             Em
Toma minha vida
C       D
Tudo é teu
            Em
Toma minha vida
C      D
Tudo é teu  (bis)

 Solo: C Gm7 Dm C
E|--------------------------------------------
B|---5-----6---------6------------------------
G|-----5-------7--3-------5---9---------------
D|--------------------------------------------
A|--------------------------------------------
E|--------------------------------------------

C            Gm
Venha o teu reino
      Dm             C
Seja feita a tua vontade

         Em         G
Minha vontade já deixei......

0 comentários

    mostrar mais comentários

    Conseguiu tocar?

    75tocaram0ainda não

    Grave um vídeo tocando Teus Sonhos e mande pra gente!

    00:00 / 00:00
    outros vídeos desta música
    repetirqualidadeautomática
    Outro vídeos desta música
      00:00 / 00:00
      automática
      OK