Cifra Club

Aprenda

Dez Segundos

Fernando e Renan

Cifra: Principal (violão e guitarra)
tom: F#
Intro: D#m B F# C#

Solo Guitarra:
E|--------------------------------------------------------|
B|--7--6-6--4-4-------7--6-6--4-4----6-7----7-9-11-9-7-9--|
G|---------------6-6---------------6------6---------------|
D|--------------------------------------------------------|
A|--------------------------------------------------------|
E|--------------------------------------------------------|

D#m                  B
Não faça nada que vá se arrepender
F#                   C#
Pense um pouco antes de ir embora

Solo Guitarra:
E|---------------------|
B|---------------------|
G|------6-8-6---6-8-8--|
D|--6-8-------8--8-----|
A|---------------------|
E|---------------------|

D#m                     B
Dez segundos é o que eu dó pra você
F#
A escolha é sua
C#
começa agora


D#m
Um vale mais os meus olhos
B
Dois vale mais os meus beijos
F#
Três o coração apertado
C#
Quatro é só desejo
D#m
Cinco to pensando em chorar
B
Seis você ta se entregando
F#                         C#
Sete, oito, nove e o tempo está acabando

Refrão:
D#m                    B
Dez segundos você teve pra decidir
F#                    C#
Duvido que você tenha coragem de sair
D#m                     B
Dez segundos o bastante pra perceber
F#                     C#
Que só eu faço o seu coração bater

Solo Guitarra:
E|--------------------------------------------------------------------|
B|--7--6-6--4-4-------7--6-6--4-4----6-7----7-9-11-9-7-9----7-6-4-----|
G|---------------6-6---------------6------6---------------6------6-8--|
D|--------------------------------------------------------------------|
A|--------------------------------------------------------------------|
E|--------------------------------------------------------------------|
Composição de Diego Ferreira / Everton Matos
Colaboração e revisão:
  • Raffaela Magro
183 exibições
    • ½ Tom
    • A
    • Bb
    • B
    • C
    • Db
    • D
    • Eb
    • E
    • F
    • F#
    • G
    • Ab
  • Adicionar à lista

    0 comentários

    Ver todos os comentários

    Conseguiu tocar?

    0 Tocaram 0 Ainda não

    Grave um vídeo tocando Dez Segundos e nos envie!

    00:00 / 00:00
    Outros vídeos desta música
    Repetir Qualidade Automático
    Outros vídeos desta música
    00:00 / 00:00
    Automático

    Cifra Club Pro

    Aproveite o Cifra Club com benefícios exclusivos e sem anúncios
    Cifra Club Pro
    Aproveite o Cifra Club com benefícios exclusivos e sem anúncios
    OK