Notificações Amigos pendentes

      Fernando e Sorocaba

      6 de Janeiro de 2003

      209.124 exibições
      Tom: C
      Teclado 2x:
      
      E|----------15-------|
      B|-----13------10-12-|
      G|-------------------|
      D|-------------------|
      
      Na segunda vez do solo do teclado, o violão base faz:
      
      E|--------------------------------------------|
      B|--------------------------------------------|
      G|--------------------------------------------|
      D|-----------------------3h5-2-2-2-2-2-2-2-2-2|
      A|-3-3-3-3-3-3-3-3-3-3-3----------------------|
      
      
      
      Introdução guitarra solo:
      (teclado continua 2x)
      
      
             C            Em          C               Em
      E|-------------------------------------------------------|
      B|---------------------------------12h13p12h13p12h13p12~\|
      G|--5/12-----12/14----------5/12-------------------------|
      D|-----------------14------------------------------------|
      A|-------------------------------------------------------|
      E|-------------------------------------------------------|
      
      
      
      Am
      Faz tantos anos
      
      Mas parece que o tempo parou
      C
      Naquele exato instante
                         G
      Que você me abandonou
            F         G
      Por que tudo teve fim?
      
      Tá difícil aceitar  G|-5/9-|
      
      Am
      Por sua causa
      
      Bebo, fumo, vivo na madrugada
      C
      Tudo é chato, previsível
      
                        G
      Nada me leva a nada   G|-10/12\-|
      
          F           G
      04:30 e eu não fui dormir
      
      
      Da cabeça, você não sai  E|-1/8\-|
      
      
      Refrão:
      
       C
      Ah se eu pudesse deletar de vez  G|-----0-------|
                                       D|-0h2---2-----|
                                       A|---------3-2-|
      
      Em
      6 de janeiro de 2003
         F
      A dor iria embora
                            C  G
      
       E as lágrimas iam secar      B|-----8-8-8-6-6-6-5-5-5-3-3-3-1/8\-|
                                   G|-3/5------------------------------|
      
      
       C
      Foi nesse dia que o mundo parou  G|-----0-------|
                                       D|-0h2---2-----|
                                       A|---------3-2-|
      
      
       Em
      Você se foi, mas seu amor ficou  B|-8/13-|
      
      
       F                                           C
      Volta de uma vez, não posso mais continuar     B|-3/5\3/5\3/5\3-|
      
      
      Am
      Sinto teu gosto na minha boca
      
      Mesmo sem te beijar
      C
      Sinto teu corpo no meu corpo
                     G
      Mesmo sem te tocar
         F        G
      Você ainda vive aqui
      
      Seu amor é tão real
      
      
      B|----1-1-1-1-|
      G|---2-2-2-2--|
      A|-0----------|
      
      
      Am
      Todo papo que começa
      
      Só termina em você
      
      
      B|----1-1-1-1-|
      G|---0-0-0-0--|
      A|-3----------|
      
      C
      Já conversei com teus amigos
      
                         B|----3-3-3-3-|
                         G|---0-0-0-0--|
                         E|-3----------|
      
      
                         G
      Pra tentar te entender
      
      
      B|----1-1-1-1-----3-3-|
      G|---2-2-2-2-----0-0--|
      E|-1-----------3------|
      
            F         G
      Por que tem que ser assim?
      
      É aqui o seu lugar B|-1/8\-|
      
      Refrão:
      
       C
      Ah se eu pudesse deletar de vez  G|-----0-------|
                                       D|-0h2---2-----|
                                       A|---------3-2-|
      
      Em
      6 de janeiro de 2003
         F
      A dor iria embora
                            C  G
      
       E as lágrimas iam secar    B|-----8-8-8-6-6-6-5-5-5-3-3-3-1/8\-|
                                 G|-3/5------------------------------|
      
      
       C
      Foi nesse dia que o mundo parou  G|-----0-------|
                                       D|-0h2---2-----|
                                       A|---------3-2-|
      
      
       Em
      Você se foi, mas seu amor ficou  B|-8/13-|
      
      F                                           C
      Volta de uma vez, não posso mais continuar
      
      (solo)
      
      
          C                                       Em
      E|----------------------------------------------12-|
      B|----13----13/15-15/17--17\15-13-15-15/17----12---|
      G|-12----12---------------------------------12-----|
      D|-------------------------------------------------|
      A|-------------------------------------------------|
      E|-------------------------------------------------|
      
      
                     C                                     Em
      E|----12-13-13/15-13/15-13/15-13/15--12----------------12/15-15/19-19\-|
      B|-15-----------------------------------15-13-15-15/17-----------------|
      G|---------------------------------------------------------------------|
      D|---------------------------------------------------------------------|
      A|---------------------------------------------------------------------|
      E|---------------------------------------------------------------------|
      
      
      Refrão:
      
      B|-1/8\-|
      
       C
      Ah se eu pudesse deletar de vez  G|-----0-------|
                                       D|-0h2---2-----|
                                       A|---------3-2-|
      
      Em
      6 de janeiro de 2003
         F
      A dor iria embora
                            C  G
      
       E as lágrimas iam secar   B|-----8-8-8-6-6-6-5-5-5-3-3-3-1/8\-|
                                G|-3/5------------------------------|
      
      
       C
      Foi nesse dia que o mundo parou  G|-----0-------|
                                       D|-0h2---2-----|
                                       A|---------3-2-|
      
      
       Em
      Você se foi, mas seu amor ficou  B|-8/13-|
      
      F                                           C
      Volta de uma vez, não posso mais continuar
      
      
          C                                          Em
      E|--------------------------------------------------------------------------|
      B|--------------------------------------------------12h13p12h13p12----------|
      G|-10/12-12-12-10/12-12-12-10/12-12-12-10/12-12-12--12-------------12h14p12-|
      D|--------------------------------------------------------------------------|
      A|--------------------------------------------------------------------------|
      E|--------------------------------------------------------------------------|
      
      
          C                      Em               C
      E|-------12-12-------12-12-------12-12-12/15-|
      B|-10/12-------10/12-------10/12-------------|
      G|-------------------------------------------|
      D|-------------------------------------------|
      A|-------------------------------------------|
      E|-------------------------------------------|
      
      
      Teclado:
      
      E|-15-------|
      B|----10-12-|
      
        Composição: SorocabaColaboração e revisão:
        • allanmineiro
        • tiago_hcs
        • 56lv
        • r.l.c
        • math2011
        • +1

        Comentários 28

        140 .
        • bruninh0 bruninh0: Em 24/07/2012 11:52

          o Tom dela é LÁ GALERA.. TROQUEM LA EM CIMA para [ A ] ! ;D

          • turati turati: Em 08/11/2012 17:30

            OLHA LA EM CIMA E OBSERVA QUE ALI É ACUSTICO SE QUISER A COMPLETA MUDE

        • moisesmathos moisesmathos: Em 14/05/2012 17:52

          visite MOISES MATHOS no you tube

        • lindissythais lindissythais: Em 11/05/2012 17:45

          o tom nao tah de acordo cm amusica nao

        • junior10.10 junior10.10: Em 28/03/2012 09:46

          Vídeo aula dessa musica PF...

        • pauloricardorsx pauloricardorsx: Em 06/02/2012 17:18

          versao do acustico 2 eh mais massa ^^ o Tom eh em A vlw :D

        • gargari gargari: Em 05/02/2012 19:12

          Galera preparem a vídeo- aula dela por favor ele ritmo dela mata em alguns acordes do solo :X

        • allanmineiro allanmineiro: Em 17/12/2011 22:08

          aew joseane o ritmo base é BAIXO BAIXO(as 3 primeiras cordas do acorde)CIMA. è assim a música toda espero ter ajudado vlw

        • joseanejk joseanejk: Em 09/11/2011 01:34

          nao to achando o ritimo certo pra essa musica ;x

        • allanmineiro allanmineiro: Em 21/10/2011 19:57

          coloquei todos os solos de guitarra teclado e arpeijos qq coisa é só falar
          vlw

        140 cancelar

        conseguiu tocar?

        • •••

        covers

        Grave um vídeo tocando 6 de Janeiro de 2003 e mande pra gente!

        Ex.: http://www.youtube.com/watch?v=0IvSvIwGdwk
        ver covers de outras músicas »
        0:00 / 0:00

        Capítulos

          2 versões de violão dificuldade exibições contribuição e correção
          2 versões de guitarra dificuldade exibições contribuição e correção
          2 versões de cavaco dificuldade exibições contribuição e correção
          2 versões de teclado dificuldade exibições contribuição e correção
          play/pausefechar subir/descer velocidade
          6ª corda E5ª corda A4ª corda D3ª corda G2ª corda B1ª corda E
            acordes
            publicidade
            fechar
            ok