Cifra Club

6 de Janeiro de 2003

Fernando e Sorocaba

Cifra: Principal
exibições 217.155
Tom: C
Teclado 2x:
E|----------15-------|
B|-----13------10-12-|
G|-------------------|
D|-------------------|
Na segunda vez do solo do teclado, o violão base faz:
E|--------------------------------------------|
B|--------------------------------------------|
G|--------------------------------------------|
D|-----------------------3h5-2-2-2-2-2-2-2-2-2|
A|-3-3-3-3-3-3-3-3-3-3-3----------------------|


Introdução guitarra solo:
(teclado continua 2x)

       C            Em          C               Em
E|-------------------------------------------------------|
B|---------------------------------12h13p12h13p12h13p12~\|
G|--5/12-----12/14----------5/12-------------------------|
D|-----------------14------------------------------------|
A|-------------------------------------------------------|
E|-------------------------------------------------------|


Am
Faz tantos anos

Mas parece que o tempo parou
C
Naquele exato instante
                   G
Que você me abandonou
      F         G
Por que tudo teve fim?

Tá difícil aceitar  G|-5/9-|

Am
Por sua causa

Bebo, fumo, vivo na madrugada
C
Tudo é chato, previsível
                  G
Nada me leva a nada   G|-10/12\-|
    F           G
04:30 e eu não fui dormir

Da cabeça, você não sai  E|-1/8\-|

Refrão:
 C
Ah se eu pudesse deletar de vez  G|-----0-------|
                                 D|-0h2---2-----|
                                 A|---------3-2-|
Em
6 de janeiro de 2003
   F
A dor iria embora
                      C  G
 E as lágrimas iam secar      B|-----8-8-8-6-6-6-5-5-5-3-3-3-1/8\-|
                             G|-3/5------------------------------|
 C
Foi nesse dia que o mundo parou  G|-----0-------|
                                 D|-0h2---2-----|
                                 A|---------3-2-|

 Em
Você se foi, mas seu amor ficou  B|-8/13-|

 F                                           C
Volta de uma vez, não posso mais continuar     B|-3/5\3/5\3/5\3-|

Am
Sinto teu gosto na minha boca

Mesmo sem te beijar
C
Sinto teu corpo no meu corpo
               G
Mesmo sem te tocar
   F        G
Você ainda vive aqui

Seu amor é tão real

B|----1-1-1-1-|
G|---2-2-2-2--|
A|-0----------|

Am
Todo papo que começa

Só termina em você

B|----1-1-1-1-|
G|---0-0-0-0--|
A|-3----------|
C
Já conversei com teus amigos
                   B|----3-3-3-3-|
                   G|---0-0-0-0--|
                   E|-3----------|

                   G
Pra tentar te entender

B|----1-1-1-1-----3-3-|
G|---2-2-2-2-----0-0--|
E|-1-----------3------|
      F         G
Por que tem que ser assim?

É aqui o seu lugar B|-1/8\-|

Refrão:
 C
Ah se eu pudesse deletar de vez  G|-----0-------|
                                 D|-0h2---2-----|
                                 A|---------3-2-|
Em
6 de janeiro de 2003
   F
A dor iria embora
                      C  G
 E as lágrimas iam secar    B|-----8-8-8-6-6-6-5-5-5-3-3-3-1/8\-|
                           G|-3/5------------------------------|

 C
Foi nesse dia que o mundo parou  G|-----0-------|
                                 D|-0h2---2-----|
                                 A|---------3-2-|

 Em
Você se foi, mas seu amor ficou  B|-8/13-|
F                                           C
Volta de uma vez, não posso mais continuar

(solo)

    C                                       Em
E|----------------------------------------------12-|
B|----13----13/15-15/17--17\15-13-15-15/17----12---|
G|-12----12---------------------------------12-----|
D|-------------------------------------------------|
A|-------------------------------------------------|
E|-------------------------------------------------|

               C                                     Em
E|----12-13-13/15-13/15-13/15-13/15--12----------------12/15-15/19-19\-|
B|-15-----------------------------------15-13-15-15/17-----------------|
G|---------------------------------------------------------------------|
D|---------------------------------------------------------------------|
A|---------------------------------------------------------------------|
E|---------------------------------------------------------------------|

Refrão:

B|-1/8\-|
 C
Ah se eu pudesse deletar de vez  G|-----0-------|
                                 D|-0h2---2-----|
                                 A|---------3-2-|
Em
6 de janeiro de 2003
   F
A dor iria embora
                      C  G
 E as lágrimas iam secar   B|-----8-8-8-6-6-6-5-5-5-3-3-3-1/8\-|
                          G|-3/5------------------------------|
 C
Foi nesse dia que o mundo parou  G|-----0-------|
                                 D|-0h2---2-----|
                                 A|---------3-2-|
 Em
Você se foi, mas seu amor ficou  B|-8/13-|
F                                           C
Volta de uma vez, não posso mais continuar

    C                                          Em
E|--------------------------------------------------------------------------|
B|--------------------------------------------------12h13p12h13p12----------|
G|-10/12-12-12-10/12-12-12-10/12-12-12-10/12-12-12--12-------------12h14p12-|
D|--------------------------------------------------------------------------|
A|--------------------------------------------------------------------------|
E|--------------------------------------------------------------------------|

    C                      Em               C
E|-------12-12-------12-12-------12-12-12/15-|
B|-10/12-------10/12-------10/12-------------|
G|-------------------------------------------|
D|-------------------------------------------|
A|-------------------------------------------|
E|-------------------------------------------|

Teclado:
E|-15-------|
B|----10-12-|
Acordes para:
    Composição: SorocabaColaboração e revisão:

    0 comentários

      mostrar mais comentários

      Conseguiu tocar?

      37tocaram1ainda não

      Grave um vídeo tocando 6 de Janeiro de 2003 e mande pra gente!

      00:00 / 00:00
      outros vídeos desta música
      repetirqualidadeautomática
      Outro vídeos desta música
        00:00 / 00:00
        automática
        OK