Cifra Club

Aprenda

A Casa Caiu

Fernando e Sorocaba

Cifra: Completa-com-capo (violão e guitarra)
tom: D (forma dos acordes no tom de C) Capotraste na 2ª casa
(solo 2x)
   C         G Am        G
E|-0-----------0-----------|
B|-1-1-3-1-3-0-1-1-1-1-1-0-|
G|-0-0-0-0-0-0-2-0-2-0-2-0-| 
D|-2-----------2-----------|
A|-3-----------0-----------|
E|-------------------------|

(refrão)
C                      G
  Eu tenho mais o que fazer
                    Am
Será que você me entende?
F
  Quero um amor decente
C                      G
  Nossa paixão desmoronou
               Am
E só você não viu
F
  Sua casa caiu

(primeira parte)
       C         G
Tô grilado, enganado
F                      C
  Por que armou isso comigo?
              G
Tô pirado, revoltado
F                              C
  Não vou ser mais seu ombro amigo

  G                   Am
Para, para, para tá louca
           F                         C
Tá tudo errado ficar longe da minha boca
 G              Am
Para sua casa caiu de vez
    F
Eu sei do seu passado
   G
Você faz tudo errado
    F
O amor ta acabado
G
Eu já to cansado
F     G             C
  Da sua estupidez

(refrão 2x)

(repete tudo)

(solo 2)
E|-----------------------------------------------------|-13-12----13-12--------|
B|-13-13-13-13-13-13--15-15-15-15-15-15-15-13-15-17-13-|-------13-------13-13--|
G|-----------------------------------------------------|-----------------------|
D|-----------------------------------------------------|-----------------------|
A|-----------------------------------------------------|-----------------------|
E|-----------------------------------------------------|-----------------------|

E|-----------------------------------------------------|-----------------------|
B|-13-13-13-13-13-13--15-15-15-15-15-15-15-13-15-17-13-|-----------------------|
G|-----------------------------------------------------|-10-9----10-9----10/12-|
D|-----------------------------------------------------|------10------10-------|
A|-----------------------------------------------------|-----------------------|
E|-----------------------------------------------------|-----------------------|

(refrão 2x)
Composição de Sorocaba
Colaboração e revisão:
  • Cauê Queiroz
9.334 exibições
  • Simplificar cifra
    • ½ Tom
    • A
    • Bb
    • B
    • C
    • Db
    • D
    • Eb
    • E
    • F
    • F#
    • G
    • Ab
  • Adicionar à lista

    0 comentários

    Ver todos os comentários
    00:00 / 00:00
    Outros vídeos desta música
    Repetir Qualidade Automático
    Outros vídeos desta música
    00:00 / 00:00
    Automático

    Cifra Club Pro

    Aproveite o Cifra Club com benefícios exclusivos e sem anúncios
    Cifra Club Pro
    Aproveite o Cifra Club com benefícios exclusivos e sem anúncios
    OK