Notificações Amigos pendentes

      Fernando e Sorocaba

      A Louca

      211.096 exibições
      Tom: A
      Intro:
      
            G
      E|--------------------|
      B|--3-3-3-3h5-3-3-3-3-|
      G|--0-0-0-0---0-2-4-0-|
      D|--------------------|
      A|--------------------|
      E|--------------------|
      
      
      Refrão:
      G                 D
      Não vem bancar a louca
                     Em   D C
      Não adianta pirar
           G            D
      Foi você quem me usou
                 C
      E depois me pediu
                         G
      Pra nunca mais voltar
      
      
       Solo 2x: G D C C
      E|--2/3-3-3-------2/3-3-3---------3-3-3-2-0-----|
      B|--2/3-3-3-------2/3-3-3---------3-3-3-3-3-3---|
      G|----------4-0h2----------4-0h2-0------------0-|
      D|----------------------------------------------|
      A|----------------------------------------------|
      E|----------------------------------------------|
      
      
      E|--2/3-3-3---------2/3-3-3---------------------|
      B|--2/3-3-3---------2/3-3-3-----3h5-------------|
      G|-----------4-0h2----------4-0-----------------|
      D|----------------------------------------------|
      A|----------------------------------------------|
      E|----------------------------------------------|
      
      
      G             D
      Você já caiu fora
      Em              C
      Jurou não mais voltar
      G                 D                     C
      Pediu que eu colocasse outra em seu lugar
      
      G                D
      Mas a gente não manda
      Em            C
      No nosso sentimento
      G                D        C
      Eu chorei por você muito tempo
      Em                  C                 G
      E agora vem com um papo que estava errada
                 D              C
      Metendo a boca toda enciumada
                                   D
      Mas eu só fiz o que você mandou
      
      (Refrão)
        Composição: SorocabaColaboração e revisão:
        • edinansouza42
        • jpaulobh
        • nandofilho9
        • paulojoga10
        • +4

        Comentários 6

        140 .
        • vitor27 vitor27: Em 22/06/2012 23:36

          O solo do começo ta en G e o tom ta en A

        • The Lost The Lost: Em 17/01/2012 13:50

          Esse tom está errado. É em G, ñ em A.

          • leoc150 leoc150: Em 04/05/2012 22:47

            essa é a do acustico, a do estudio é nesse que você disse mais essa ta certa

        • nath_ramos nath_ramos: Em 03/08/2011 19:55

          qual o ritmo??

        • jose152 jose152: Em 28/04/2011 19:48

          só nao consegui tocar muito bem o solo :(

        • kachasinho kachasinho: Em 15/02/2011 15:15

          como voces com segiram tocar

        140 cancelar

        conseguiu tocar?

        • •••
        Bárbara Biguzzi2.201 visualizações
          ver covers de outras músicas »
          0:00 / 0:00

          Capítulos

            1 versão de violão dificuldade exibições contribuição e correção
            1 versão de guitarra dificuldade exibições contribuição e correção
            1 versão de cavaco dificuldade exibições contribuição e correção
            1 versão de teclado dificuldade exibições contribuição e correção
            play/pausefechar subir/descer velocidade
            6ª corda E5ª corda A4ª corda D3ª corda G2ª corda B1ª corda E
              acordes
              publicidade
              fechar
              ok