Cifra Club

A Verdade

Fernando e Sorocaba

Cifra: Principal
exibições 355.586
Tom: D
Intro: A  D  A  D

     A                             D
E|---5h7p5-----------------------|---5h7p5---------|
B|-5-------5-5---2h3h5-----------|-5-------5~------|
G|-------------------------------|-----------------|
D|-------------------------------|-----------------|
A|-------------------------------|-----------------|
E|-------------------------------|-----------------|

     A                             D
E|---5h7p5-----------------------|---5h7p5---------|
B|-5-------5-5---2h3h5-----------|-5-------5~------|
G|-------------------------------|-----------------|
D|-------------------------------|-----------------|
A|-------------------------------|-----------------|
E|-------------------------------|-----------------|

Riff 1:                 Riff 2:
E|----------------|    E|----------------------------|
B|-3p2-3/5~-------|    B|---10-10p9-9-9\7-7-7p5/7-5~-|
G|----------2~----|    G|-9--------------------------|
D|----------------|    D|----------------------------|
A|----------------|    A|----------------------------|
E|----------------|    E|----------------------------|

Riff 3:              Riff 4:
E|------------|     E|------------14-------------|
B|-3p2-3/5~---|     B|---10h12/14----14-14/17~---|
G|------------|     G|-9-------------------------|
D|------------|     D|---------------------------|
A|------------|     A|---------------------------|
E|------------|     E|---------------------------|

A                                 D
  Diz pra ela que eu mudei de cidade
A                                 D
  Que eu fui viajar com os meus amigos
A                                         D
  Diz pra ela que eu tô curtindo a liberdade
A                                       D
  E que eu tô trabalhando e tudo tá corrido

Refrão:
E                    D                         A      G
  Fala que me viu feliz demais e que tá tudo lindo
A                     E                         Bm
  Só não conta que eu pirei, nem que eu fiquei louco
              D                              A
Não deixa ela saber que eu tô morrendo aos poucos
             E                  D D4  D
Inventa a história que você quiser
                 A   D  D4  D
Não conte a verdade,
      A   D
a verdade

     A                             D
E|---5h7p5-----------------------|---5h7p5-------5-5----|
B|-5-------5-5---2h3h5-----------|-5-------5~----5-5----|
G|-------------------------------|----------------------|
D|-------------------------------|----------------------|
A|-------------------------------|----------------------|
E|-------------------------------|----------------------|

A                                   D  (Riff 1)
 Diz pra ela que agora eu moro na praia
A                                    D  (Riff 2)
 Que eu vivo a vida que eu pedi pra Deus
A                                D  (Riff 3)
 Diz que toda noite me vê na balada
A                               D  (Riff 4)
 E que todos querem ser amigo meu

Refrão:
E                  G                         A      G
 Fala que eu encontrei a paz e que me viu sorrindo
A                     E                         Bm
  Só não conta que eu pirei, nem que eu fiquei louco
              D                              A
Não deixa ela saber que eu tô morrendo aos poucos
             E                  D D4  D
Inventa a história que você quiser
                  A
Não conte a verdade...
G                       D                       A
Eu só quero que ela lembre dos momentos mais bonitos
                   G                      D
Esse sofrimento é meu e não vai ser dividido
           E
Me ajude amigo

Refrão:
A                                               Bm
  Só não conta que eu pirei, nem que eu fiquei louco
               D                             A
Não deixa ela saber que eu tô morrendo aos poucos
              E                 D              G
Inventa a história que você quiser...    iê iê êee
A                     E                         Bm
  Só não conta que eu pirei, nem que eu fiquei louco
              D                              A
Não deixa ela saber que eu tô morrendo aos poucos
             E                  D D4  D
Inventa a história que você quiser
                  A    D  D4  D
Não conte a verdade...

                  A     D
A amo e sinto saudade...

     A                             D
E|---5h7p5-----------------------|---5h7p5---------|
B|-5-------5-5---2h3h5-----------|-5-------5~------|
G|-------------------------------|-----------------|
D|-------------------------------|-----------------|
A|-------------------------------|-----------------|
E|-------------------------------|-----------------|

                   A    D
Essa é a pura verdade

     A                             D
E|---5h7p5-----------------------|--------------------|
B|-5-------5-5---2h3h5-----------|-------3~-----------|
G|-------------------------------|-----2--------------|
D|-------------------------------|-2/4----------------|
A|-------------------------------|--------------------|
E|-------------------------------|--------------------|

A amo e sinto saudade...
Acordes para:
    Colaboração e revisão:
    • Jociele Eduardo
    • Paulo Júnior
    • Bruno

    0 comentários

      mostrar mais comentários

      Conseguiu tocar?

      86tocaram1ainda não

      Grave um vídeo tocando A Verdade e mande pra gente!

      00:00 / 00:00
      outros vídeos desta música
      repetirqualidadeautomática
      Outro vídeos desta música
        00:00 / 00:00
        automática
        OK