Cifra Club

A Vingança

Fernando e Sorocaba

Cifra: Principal (violão e guitarra)
tom: C
Intro 2x: C G F F

C                    G
Ela se banha, veste sua melhor roupa
     F               
Se arruma, se perfuma
C     G        F
 Com dor no olhar
C                  G                      F
 Toma um gole de whisky, fuma um cigarro, pega a chave do carro
C     G         F                    G
E promete que agora não vai mais chorar  

  C             G         F                                     
É hoje que ela vai se vingar, que ela vai se entregar
C      G            F
Vai ficar com o primeiro que ver
  C             G           F                  C
É hoje que meu mundo desaba, que o sonho se acaba
        G           F
Não há nada que eu possa fazer

E a vingança vai doer 

[Solo] C G F F
       C G F F

E|-------------------------------------------|
B|-------------------------------------------|
G|-8-7~~--4-5-~~-----------------------------|
D|---------------x-5h7p5~~----------------3--|
A|-------------------------5/7\5~~\3-2-3--3--|
E|----------------------------------------1--|

C                    G
Ela se banha, veste sua melhor roupa
     F                
Se arruma, se perfuma

(Riff 1)

E|---------------------|
B|---------------------|
G|---------------------|
D|---5-x-5p3-----------|
A|------------5-3h5----|
E|---------------------|
 
C     G        F   
 Com dor no olhar 

(Riff 2)

E|---------------------|
B|---------------------|
G|---------------------|
D|---3h5-5-x-x-----2---|
A|---------x-x-3h5-----|
E|---------------------|

C                  G                      F
 Toma um gole de whisky, fuma um cigarro, pega a chave do carro 

E|---------------------|
B|---------------------|
G|---------------------|
D|-------5-------------|
A|-------5-------------|
E|--8p7--3-------------|

C     G         F                    G
E promete que agora não vai mais chorar

  C            G          F                         C
É hoje que ela vai se vingar, que ela vai se entregar
      G             F
Vai ficar com o primeiro que ver
  C            G          F                   C
É hoje que meu mundo desaba, que o sonho se acaba
       G            F
Não há nada que eu possa fazer
F
E a vingança vai doer

Solo 2x: C G F F

E|-----------------------12p10---10p8---6h8--------------|
B|--8b10r8--8-8--8/11--8--------8------8----8------------|
G|-------------------------------------------------------|
D|-------------------------------------------------------|
A|-------------------------------------------------------|
E|-------------------------------------------------------|

E|--12-12-12-12-12-15-15--10p8----8p6-----8p6-------6----|
B|-----------------------------12-----11------8-6-8---8--|
G|-------------------------------------------------------|
D|-------------------------------------------------------|
A|-------------------------------------------------------|
E|-------------------------------------------------------|

  C            G          F                         C
É hoje que ela vai se vingar, que ela vai se entregar
      G             F
Vai ficar com o primeiro que ver
  C            G          F                   C
É hoje que meu mundo desaba, que o sonho se acaba
       G            F
Não há nada que eu possa fazer
F
E a vingança vai doer

E|------------------1-------------|
B|------1-3-----0-1-2p0-----------|
G|------------------3-------------|
D|----2---------------------------|
A|--3---------2-------------------|
E|----------3---------------------|

F
E a vingança vai doer

E|------------------1-------------|
B|------1-3-----0-1-2p0--0h2p0----|
G|------------------3----------3--|
D|----2---------------------------|
A|--3---------2-------------------|
E|----------3---------------------|
00:00 / 00:00
Outros vídeos desta música
Repetir
Outros vídeos desta música
Composição de Sorocaba
Colaboração e revisão:
19.834 exibições
    • ½ Tom
    • A
    • Bb
    • B
    • C
    • Db
    • D
    • Eb
    • E
    • F
    • F#
    • G
    • Ab
  • Adicionar à lista

    0 comentários

    Ver todos os comentários

    Entre para oCifra Club PRO

    Tenha acesso a benefícios exclusivos no App e no Site

    • Chega de anúncios

    • Prioridade de compra em lançamentos

    • Mais recursos no app do Afinador

    • Atendimento Prioritário

    • Descontos nos produtos Cifra Club

    • Ajude a produzir mais conteúdo

    00:00 / 00:00

    Cifra Club Pro

    Aproveite o Cifra Club com benefícios exclusivos e sem anúncios
    Cifra Club Pro
    Aproveite o Cifra Club com benefícios exclusivos e sem anúncios
    OK