Cifra Club

Aprenda

Até o Final

Fernando e Sorocaba

Cifra: Com-capo (violão e guitarra)
tom: D (forma dos acordes no tom de C) Capotraste na 2ª casa
(capo 2ª casa)

(intro)

|3/5/3--3-------------|
|3/5/3--0----3/5/3--1-|
|------------2/4/2--0-|
|---------------------|
|---------------------|
|---------------------|

      (C)
|------------------------------|
|-----1---1-x-3--1-x-0--1-x-3-1|
|---0-----0-x-0--0-x-0--0-x-0-0|
|0h2------2-x-2--2-x-2--2-x-2-2|
|-------3----------------------|
|------------------------------|

     (Am)
|------------------------------|
|-----1---1-x-3--1-x-0--1-x-3-1|
|---0-----2-x-2--2-x-2--2-x-2-2|
|0h2------2-x-2--2-x-2--2-x-2-2|
|-------0----------------------|
|------------------------------|

      (F)
|------------------------------|
|-----1---1-x-3--1-x-0--1-x-3-1|
|---0-----2-x-2--2-x-2--2-x-2-2|
|0h2------3-x-3--3-x-3--3-x-3-3|
|------------------------------|
|-------1----------------------|

      (G)
|0-3-0-------------------------------|
|3-3-3-1h3-1-0-----------------------|
|-------------0-0h2-0-----0----------|
|---------------------0h2---3-2-0----|
|---------------------------------0-3|
|3-----------------------------------|

(C)                                                                   (Am)
" as vezes num começo de um relacionamento a gente tem que impressionar
                                                       (F)
Aquela pessoa que a gente tá afim, aquela pessoa amada, e a gente acaba
                                                                      (G)
Inventando umas mentirinhas, contando vantagem, mais o importante é que

Quando um sentimento desse tipo aflora tem que durar pra vida toda. "

C                                                       Fazer isso na
      No começo eu tentava te fazer me amar             passagem do D para G
         Am                                             |0-2-5-x-|
Mais agora estamos juntos e posso confessar             |3-3-3-x-|
        F                   C                           |2-2-2-x-|
Eu não gosto de cinema, eu não sei cozinhar             |0-----x-|
           D                                  G         |------x-|
Nunca fui tão cavalheiro eu jurei nunca casar           |------x-|

|3/5/3--3-------------------------|
|3/5/3--0----3/5/3--1--------1----|
|------------2/4/2--0------0------|
|----------------------0h2--------|
|-------------------------------3-|
|---------------------------------|
                                                        fazer isso na
      C                                                 passagem do D para G
A carta que mandei não foi eu que escrevi               |0-2-5-x-|
         Am                                             |3-3-3-x-|
E o poema que te recitei num livro eu li                |2-2-2-x-|
        F                       C                       |0-----x-|
Não sou bom de futebol e por você já chorei             |------x-|
         D                            G                 |------x-|
Mais é de verdade estou te amando me apaixonei

|----------------------|
|0h1-0-----------------|
|------0h2-0-----------|
|------------3-2-0-----|
|------------------0-3-|
|----------------------|

(refrão)
 C                           F
 o doce do seu beijo enfeitiçou meu coração,
 Am                     G
 vivo noite e dia numa nuvem de paixão,
 C                      F
 nunca vou te fazer sofrer, não quero seu mal
 Am                     G            C  F       Am    G
 vem meu anjo sigo com você até o final,   até o final.

C                                                       Fazer isso na
      Eu já chorei sozinho quando a gente brigou                passagem do D para G
      Am                                                        |0-2-5-x-|
E confesso sou ciúmento e sempre escondo minha dor      |3-3-3-x-|
           F                            C               |2-2-2-x-|
As datas importantes vivo sempre a esquecer             |0-----x-|
            D                           G               |------x-|
Machuquei muitas mulheres procurando você.              |------x-|

|----------------------|
|0h1-0-----------------|
|------0h2-0-----------|
|------------3-2-0-----|
|------------------0-3-|
|----------------------|

(refrão)
 C                           F
 o doce do seu beijo enfeitiçou meu coração,
 Am                     G
 vivo noite e dia numa nuvem de paixão,
 C                      F
 nunca vou te fazer sofrer, não quero seu mal
 Am                     G            C  F       Am    G
 vem meu anjo sigo com você até o final,   até o final.

(solo)
|3/5-3-3-2-2-0-0-----------3/5-3-3-2-2-0-0---5-5/7-5|
|5/7-5-5-3-3-2-2-2-3-3-2-3-5/7-5-5-3-3-2-2-2-5-5/7-5|
|----------------2-4-4-2-4-----------------2--------|
|---------------------------------------------------|
|---------------------------------------------------|
|---------------------------------------------------|

|3/5-3-3-2-2-0-0------------9--11--12----11-11-11---9-9-9---7--4-4/5--5-5-5-5-5-5-|
|5/7-5-5-3-3-2-2-2-3-3-2-3--9--11--12----11-11-11---9-9-9---7--4-4/5--5-5-5-5-5-5-|
|----------------2-4-4-2-4--------------------------------------------------------|
|---------------------------------------------------------------------------------|
|---------------------------------------------------------------------------------|
|---------------------------------------------------------------------------------|

(refrão)
 C                           F
 o doce do seu beijo enfeitiçou meu coração,
 Am                     G
 vivo noite e dia numa nuvem de paixão,
 C                      F
 nunca vou te fazer sofrer, não quero seu mal
 Am                     G            C  F       Am    G
 vem meu anjo sigo com você até o final,   até o final.
C       F       Am      G
aaaa uuuu, uuuh uuuuh uuuuh.

                                  C
|3/5/3--3-------------------------0|
|3/5/3--0----3/5/3--1--------1----1|
|------------2/4/2--0------0------0|
|----------------------0h2--------2|            (até o final)
|---------------------------------3|
|---------------------------------3|
Composição de Sorocaba
Colaboração e revisão:
27.149 exibições
  • Simplificar cifra
    • ½ Tom
    • A
    • Bb
    • B
    • C
    • Db
    • D
    • Eb
    • E
    • F
    • F#
    • G
    • Ab
  • Adicionar à lista

    0 comentários

    Ver todos os comentários
    00:00 / 00:00
    Outros vídeos desta música
    Repetir Qualidade Automático
    Outros vídeos desta música
    00:00 / 00:00
    Automático
    Capítulos
    • Início
    • Acordes da música
    • Tocando introdução e primeira parte
    • Ensinando ritmo da música
    • Acordes e ritmo do refrão
    • Tocando refrão
    • Acordes e ritmo da base do solo
    • Tocando base do solo
    • Tocando a música
    • Encerramento

    Cifra Club Pro

    Aproveite o Cifra Club com benefícios exclusivos e sem anúncios
    Cifra Club Pro
    Aproveite o Cifra Club com benefícios exclusivos e sem anúncios
    OK