Cifra Club

Aprenda

Até o Final

Fernando e Sorocaba

Cifra: Completa (violão e guitarra)
tom: A (forma dos acordes no tom de G) Capotraste na 2ª casa
Intro:
E|-3/5\3--0------------|
B|-3/5\3--0---1/3\1--0-|
G|------------2/4\2--0-|
D|---------------------|
A|---------------------|
E|---------------------|
            C
E|---------3-x-------x-------x-------|
B|-----1---1-x-3---1-x-0---1-x-3---1-|
G|---0-----0-x-0---0-x-0---0-x-0---0-|
D|0h2------2-x-2---2-x-2---2-x-2---2-|
A|-------3---x---3---x---3---x---3---|
E|-----------x-------x-------x-------|
            Am7
E|---------3-x-------x------x-------|
B|-----1---1-x-3---1-x-0--1-x-3---1-|
G|---0-----0-x-0---0-x-0--0-x-0---0-|
D|0h2------2-x-2---2-x-2--2-x-2---2-|
A|-------0---x---0---x---0--x---0---|
E|-----------x-------x------x-------|
            Am7/G
E|---------3-x-------x-----x-------|
B|-----1---1-x-3---1-x-0h1-x-3--1--|
G|---0-----0-x-0---0-x-0---x-0--0--|
D|0h2------2-x-2---2-x-2---x-2--2-2|
A|-----------x-------x-----x-------|
E|-------3---x---3---x-----x---3---|
            F/A  (Riff)
E|0--3--0--------------------------------------------|
B|1--------1--1h3--1----1--1---1------1--------------|
G|3--------2--2----2----0--0h2-0------0--0-----------|
D|--------------------------------0h2----0h2---------|
A|----------------------------------------h3-2-0-2-3-| (cai no C)
E|---------------------------------------------------|


 C                                                                   Am7
"As vezes,num começo de um relacionamento,a gente tem que impressionar
                                                       Am7/G
Aquela pessoa que a gente tá afim, aquela pessoa amada, e a gente acaba
                                                                      F/A  (Riff)
Inventando umas mentirinhas, contando vantagem, mais o importante é que

Quando um sentimento desse tipo aflora tem que durar pra vida toda"(Até o Final)

                                                               C  G4/B  Am7
       C                                       passagem: A|-3---2----0--|
No começo eu tentava te fazer me amar
G4/B     Am7
Mas agora estamos juntos e posso confessar
        F                      C/E
Eu não gosto de cinema, eu não sei cozinhar
(Riff)  D7                         G
Nunca fui tão cavalheiro eu jurei nunca casar
Riff:
     D7                  G
E|2--3-x-5--8--x------x------x--3/5-3-0-----------------------|
B|3--5-x-7--10-x--0-1-x--3-1-x--3/5-3-0--1/3\1-0--------1-----|
G|-----x-------x--0-0-x--0-0-x-----------2/4\2-0------0-------|
D|0----x-------x------x------x--------------------0h2---------|
A|-----x-------x------x------x------------------------------3-|
E|-----x-------x--3---x--0---x--------------------------------|


   C
    A carta que mandei não foi eu que escrevi          C  G4/B  Am7
G4/7  Am7                                        A|-3---2----0--|
E o poema que te recitei num livro eu li
         F                      C/E
Não sou bom de futebol e por você já chorei
 (Riff)  D7                        G
Mas é de verdade estou te amando me apaixonei
Riff:
     D7                  G
E|2--3-x-5--8--x------x-------------------------------|
B|3--5-x-7--10-x--0-1-x--3-1-0------------------------|
G|-----x-------x--0-0-x--0-0------5-4h5-2-0-----------|
D|0----x-------x------x---------------------3-0----0--|
A|-----x-------x------x--------------------------2---3| (cai no C)
E|-----x-------x--3---x--3----------------------------|


Refrão:
  C                          F
 O doce do seu beijo enfeitiçou meu coração,
 Am                     G
 Vivo noite e dia numa nuvem de paixão,
 C                      F
 Nunca vou te fazer sofrer, não quero seu mal
 Am                     G            C  F          Am
 Vem meu anjo sigo com você até o final,   até o final.
     G
E|3--3--3---3-|
B|0--0--1---0-|
G|0--0--0---0-|
D|0-----------|
A|2-----------|
E|3-----------|


        C                                                   C  G4/B  Am7
Eu já chorei sozinho quando a gente brigou       A|-3---2----0--|
G4/B  Am7
E confesso sou ciumento e sempre escondo minha dor
    F                      C/E
As datas importantes vivo sempre a esquecer
(Riff) D7                       G
Machuquei muitas mulheres procurando você.
Riff:
     D7              G
E|2--3-x-5--8--x------x-------------------------------|
B|3--5-x-7--10-x--0-1-x--3-1-0------------------------|
G|-----x-------x--0-0-x--0-0------5-4h5-2-0-----------|
D|0----x-------x------x---------------------3-0----0--|
A|-----x-------x------x--------------------------2---3| (cai no C)
E|-----x-------x--3---x--3----------------------------|


Refrão:
   C                         F
 O doce do seu beijo enfeitiçou meu coração,
 Am                     G
 Vivo noite e dia numa nuvem de paixão,
 C                      F
 Nunca vou te fazer sofrer, não quero seu mal
 Am                       G          C  F           Am
 Vem meu anjo sigo com você até o final,   até o final.
     G
E|3--3--3---3-|
B|0--0--1---0-|
G|0--0--0---0-|
D|0-----------|
A|2-----------|
E|3-----------|


Solo: D  G  Bm  A  D  G  Bm  G
       D                  G              Bm                A
E|3/5-3-3-2-2-----------------------3/5-3-3-2-2--------7-7/9-7-|
B|5/7-5-5-3-3-5-3-3-3----3-3-3------5/7-5-5-3-3-5-3-3--7-7/9-7-|
G|------------6-4-2-2h4--4-2-2h4----------------6-4-2----------|
D|-------------------------------------------------------------|
A|-------------------------------------------------------------|
E|-------------------------------------------------------------|
       D                  G              Bm                      G
E|3/5-3-3-2-2------------------7--9--10--9-9-9--7-7-7--5--x-x-x--x-x-x-x-x-x-|
B|5/7-5-5-3-3-5-3-3-3---3-3----x--x---x--x-x-x--x-x-x--x--7-7/8--8-8-8-8-8-8-|
G|------------6-4-2-2h4-4-2h4--4--6---7--6-6-9--4-4-4--2--x-x-x--x-x-x-x-x-x-|
D|-----------------------------x--x---x--x-x-x--x-x-x--x--4-4/5--5-5-5-5-5-5-|
A|-----------------------------x--x---x--x-x-x--x-x-x--x--x-x-x--x-x-x-x-x-x-|
E|-----------------------------x--x---x--x-x-x--x-x-x--x--x-x-x--x-x-x-x-x-x-|


Refrão:
    C                        F
 O doce do seu beijo enfeitiçou meu coração,
 Am                     G
 Vivo noite e dia numa nuvem de paixão,
 C                      F
 Nunca vou te fazer sofrer, não quero seu mal
 Am                      G         C    F          Am    G
 Vem meu anjo sigo com você até o final,   até o final.
      C    F              Am
 Aaah uuuh, uuuh uuuuh uuuuh.
                                          C/G
E|3/5\3--0-------------------------0-|
B|3/5\3--0----1/3\1--0--------1----1-|
G|------------2/4\2--0------0------0-|
D|----------------------0h2--------2-|
A|---------------------------------3-|
E|---------------------------------3-|


Até o Final....
Composição de Sorocaba
Colaboração e revisão:
  • ronilton correia
26.251 exibições
  • Simplificar cifra
    • ½ Tom
    • A
    • Bb
    • B
    • C
    • Db
    • D
    • Eb
    • E
    • F
    • F#
    • G
    • Ab
  • Adicionar à lista

    0 comentários

    Ver todos os comentários
    00:00 / 00:00
    Outros vídeos desta música
    Repetir Qualidade Automático
    Outros vídeos desta música
    00:00 / 00:00
    Automático

    Cifra Club Pro

    Aproveite o Cifra Club com benefícios exclusivos e sem anúncios
    Cifra Club Pro
    Aproveite o Cifra Club com benefícios exclusivos e sem anúncios
    OK