Cifra Club

Aprenda

Até o Final

Fernando e Sorocaba

Cifra: V1 (violão e guitarra)
tom: D (forma dos acordes no tom de C) Capotraste na 2ª casa
Intro:
     C                               Am
E|-------------------------------------------|
B|-----1-0-1-1--------1------------1-0-1/-8~-|
G|---0-0-0-0-0------0---------0----2-2-2/----|
D|---2-------2--0h2---------0----------------|
A|-3--------------------0h3-----0------------|
E|-------------------------------------------|
     F                      C
E|-0-3p0-----8/-3-0------------------x(3)-|
B|-1-1---1----------3p1--------1-0-1-x(3)-|
G|-2-----2-2------------0------0-0-0-x(4)-|
D|-3-------3------------2----2-------x(4)-|
A|------------------------3---------------|
E|----------------------------------------|

(aqui é a parte da percusão)
(escute bem esse trecho da música,pra aprender)

                             C
E|-5/7/5-----------------------x-----x-------x-----|
B|-5/7/5-3-3/5/3-1-------1---1-x-3-1-x-0---1-x-3-1-|
G|-------2-2/4/2-0-----0-----0-x-0-0-x-0---0-x-0-0-|
D|-----------------0h2-------2-x-----x-------x---2-|
A|-------------------------3---x-3-3-x---3-3-x-3-3-|
E|-----------------------------x-----x-------x-----|
     Am
E|-------------x-----x-------x-----|
B|-------1---1-x-3-1-x-0---1-x-3-1-|
G|-----2-----2-x-2-2-x-0---2-x-2-2-|
D|-0h2-------2-x-----x-------x---2-|
A|---------0---x-0-0-x---0-0-x-0-0-|
E|-------------x-----x-------x-----|
             F
E|-------------x-----x-------x-----0-3---------------------------------|
B|-------1---1-x-3-1-x-0---1-x-3-1-3-3-3-1/3-1-0-0h1-0-----------------|
G|-----0-----2-x-2-2-x-2---2-x-2-2---------------------0h2-0-----------|
D|-0h2-----3---x-3-3-x---3-3-x-3-3---------------------------3-2-0-----|
A|-------------x-----x-------x-------------------------------------0-3-|
E|-------------x-----x-------x-----------------------------------------|

Parte 1:
     C                             Am7 Am
E|-----x-------x-------x-------x-------x-------x-------x-------x-|
B|---1-x-1---1-x-1---1-x-1---1-x-1---1-x-1---1-x-1---1-x-1---1-x-|
G|---0-x-0---0-x-0---0-x-0---0-x-0---2-x-2---2-x-2---2-x-2---2-x-|
D|---2-x-2---2-x-2---2-x-2---2-x-2---2-x-2---2-x-2---2-x-2---2-x-|
A|-3---x---3-3-x---3-3-x---3-3-x---0---x---0-0-x---0-0-x---0-0-x-|
E|-----x-------x-------x-------x-------x-------x-------x-------x-|
     F               Am7 C         |a parte rapida | G
E|-------x-------x-------x-------x-0-x-2-x-5-x-8-x-------x-----x-|
B|-1---1-x-1---1-x-1---1-x-1---1-x-3-x-3-x-3-x---x-3---3-x-3-3-x-|
G|-2---2-x-2---2-x-0---0-x-0---0-x-2-x-2-x-2-x-5-x-0---0-x-0-0-x-|
D|---3---x---3-3-x-2---2-x-2---2-x---x---x---x---x-------x-----x-|
A|-------x-------x---3-3-x---3-3-x---x---x---x---x-------x-----x-|
E|-------x-------x-------x-------x---x---x---x---x---3-3-x-3-3-x-|

     C
No começo eu tentava te fazer me amar,
      Am
Mas agora estamos juntos e posso confessar
        F                       C
Eu nao gosto de cinema, eu nao sei cozinhar
(D)                       G
Nunca fui tão cavalheiro,jurei nunca casar
Riff 1:
E|-5/7/5---------------------|
B|-5/7/5-3-3/5/3-1-------1---|
G|-------2-2/4/2-0-----0-----|
D|-----------------0h2-------|
A|-------------------------3-|
E|---------------------------|

Parte 2:
   C
A carta que mandei não fui eu que escrevi
      Am
E o poema que te recitei num livro eu li
         F                      C
Não sou bom de futebol e por você já chorei
(D)                                 G
Mas é de verdade estou te amando e me apaixonei...
Riff 2:
E|-----------------------|
B|-0h1-0-----------------|
G|-------0h2-0-----------|
D|-------------3-2-0-----|
A|-------------------0-3-|
E|-----------------------|

Refrão:
E|----x-------x-------x-------x-------x-------x-------x-------|
B|--1-x-1---1-x-1---1-x-1---1-x-1---1-x-1---1-x-3---3-x-3---3-|
G|--0-x-0---0-x-0---2-x-2---2-x-2---2-x-2---2-x-0---0-x-0---0-|(x3)
D|----x-------x---3-3-x---3-3-x-------x-------x-------x-------|
A|-3--x---3-3-x-------x-------x---0-0-x---0-0-x-------x-------|
E|----x-------x-------x-------x-------x-------x---3-3-x---3-3-|

   C                        F
O doce do seu beijo enfeitiçou meu coração
Am                    G
Vivo noite e dia numa nuvem de paixão
 C                     F
Nunca vou te fazer sofrer não quero seu mal
 Am                      G
Vem meu anjo sigo com você
         C  F         Am  (G)
Até o final,  até o final...

Parte 3:
    C
Eu já chorei sozinho quando a gente brigou
       Am
Mas confesso sou ciumento e sempre escondo minha dor
    F                      C
As datas importantes vivo sempre a esquecer
(D)                       G
Machuquei muitas mulheres procurando você...
Riff 3:
E|-----------------------|
B|-0h1-0-----------------|
G|-------0h2-0-----------|
D|-------------3-2-0-----|
A|-------------------0-3-|
E|-----------------------|

Refrão:
   C                        F
O doce do seu beijo enfeitiçou meu coração
Am                    G
Vivo noite e dia numa nuvem de paixão
 C                     F
Nunca vou te fazer sofrer não quero seu mal
 Am                      G
Vem meu anjo sigo com você
         C  F         Am  (G)
Até o final,  até o final...

Solo: D9  Bm  D9  A  D9  Bm  G ( A )
     D9                Bm        D9             A
E|3/5-3-3-2-2-0-0-------------3/5-3-3-2-2-0-0---5-5/7-5|
B|5/7-5-5-3-3-2-2-2-2/3-3-2-3-5/7-5-5-3-3-2-2-2-5-5/7-5|
G|----------------2-2/4-4-2-4-----------------2--------|
D|-----------------------------------------------------|
A|-----------------------------------------------------|
E|-----------------------------------------------------|
     D9                Bm             G                (A)
E|3/5-3-3-2-2-0-0--------------9-11-12--11-11-9-9-7-7-5-5-5-5-5-5-5-|
B|5/7-5-5-3-3-2-2-2-2/3-3-2-3--9-11-12--11-11-9-9-7-7-5-------------|
G|----------------2-2/4-4-2-4---------------------------2-2-2-2-2-2-|
D|------------------------------------------------------------------|
A|------------------------------------------------------------------|
E|------------------------------------------------------------------|

Refrão:
   C                        F
O doce do seu beijo enfeitiçou meu coração
Am                    G
Vivo noite e dia numa nuvem de paixão
 C                     F
Nunca vou te fazer sofrer não quero seu mal
 Am                      G
Vem meu anjo sigo com você
         C  F         Am  (G)
Até o final,  até o final...
   C      F     Am
Aaahuuuuu, UuUUUUU...
Riff 4:
                             C/G
E|-5/7/5----------------------|
B|-5/7/5-3-3/5/3-1-------1-1--|
G|-------2-2/4/2-0-----0---0--|
D|-----------------0h2-----2--|
A|-------------------------3--|
E|-------------------------3--|

Até o final...
Composição de Sorocaba
Colaboração e revisão:
  • Paulo Ricardo
8.748 exibições
  • Simplificar cifra
    • ½ Tom
    • A
    • Bb
    • B
    • C
    • Db
    • D
    • Eb
    • E
    • F
    • F#
    • G
    • Ab
  • Adicionar à lista

    0 comentários

    Ver todos os comentários
    00:00 / 00:00
    Outros vídeos desta música
    Repetir Qualidade Automático
    Outros vídeos desta música
    00:00 / 00:00
    Automático

    Cifra Club Pro

    Aproveite o Cifra Club com benefícios exclusivos e sem anúncios
    Cifra Club Pro
    Aproveite o Cifra Club com benefícios exclusivos e sem anúncios
    OK