Cifra Club

Chorei Largado

Fernando e Sorocaba

Cifra: Principal (violão e guitarra)
tom: D
(intro) D A A G D A

(solo)
E|------------------------------------9-9-9--7-5--7h9--------7-7-7--5-3-5h7|
B|-------------------------------------------------------------------------|
G|--------------------------------7h9-------------------5h7----------------|
D|-------------------------------------------------------------------------|
A|----5--7-7h9-7-5-----5h7--5-4--------------------------------------------|
E|--5---------------5------------------------------------------------------|

E|------5-5--5-------------------------------------------------------------|
B|--5h7---------8-7-5------------------------------------------------------|
G|-------------------------------------------------------------------------|
D|-------------------------------------------------------------------------|
A|-------------------------5--7-7h10-9-7-9--5------------------------------|
E|-----------------------5-------------------------------------------------|

  D                     D
Avulso livre leve e solteiro
               D
Coração Aventureiro
                   A
Cheio de amor pra dar
    A                     A
Quebrando tudo com a mulherada
                A
Invernado na noitada
              D
Até o dia clarear
  D                       D
Até o dia que eu achei a moça
                     D7
Que me fez perder a força
                   G
Fiquei sem respiração
  G                        D
E eu que achava que era o cara
                    A
Me passei por um panaca
                   D
Virei um pano de chão

(refrão)
               A9   D
Ah eu choreeeeei  largado
                A
Ah eu chorei largado
                       A
Vou mandar chumbo trocado
                   A
Não quero deixar barato
                 A
Tô voltando pra balada
                  G
Quero ver a mulherada
      A             D
Meto marcha no bailão
              A9   D
Ah eu choreeeeei  largado
                A
Ah eu chorei largado
                     A
Cansei de ser humilhado
                     A
Vou dar castigo dobrado
                    A
Aqui não tem nenhum bobo
                       A
Vou chegar passando o rodo
                A
Meto marcha no bailão

(solo)

E|------------------------------------9-9-9--7-5--7h9--------7-7-7--5-3-5h7|
B|-------------------------------------------------------------------------|
G|--------------------------------7h9-------------------5h7----------------|
D|-------------------------------------------------------------------------|
A|----5--7-7h9-7-5-----5h7--5-4--------------------------------------------|
E|--5---------------5------------------------------------------------------|

E|------5-5--5-------------------------------------------------------------|
B|--5h7---------8-7-5------------------------------------------------------|
G|-------------------------------------------------------------------------|
D|-------------------------------------------------------------------------|
A|-------------------------5--7-7h10-9-7-9--5------------------------------|
E|-----------------------5-------------------------------------------------|

(repete tudo)
(refrão)
                 A9  D
Ah eu choreeeeei  largado
00:00 / 00:00
Outros vídeos desta música
Repetir
Outros vídeos desta música
Composição de Fernando Fakri
Colaboração e revisão:
  • Tiago Kogut
  • Moizes Filho
66.336 exibições
    • ½ Tom
    • A
    • Bb
    • B
    • C
    • Db
    • D
    • Eb
    • E
    • F
    • F#
    • G
    • Ab
  • Adicionar à lista

    0 comentários

    Ver todos os comentários

    Entre para oCifra Club PRO

    Tenha acesso a benefícios exclusivos no App e no Site

    • Chega de anúncios

    • Prioridade de compra em lançamentos

    • Mais recursos no app do Afinador

    • Atendimento Prioritário

    • Descontos nos produtos Cifra Club

    • Ajude a produzir mais conteúdo

    00:00 / 00:00

    Cifra Club Pro

    Aproveite o Cifra Club com benefícios exclusivos e sem anúncios
    Cifra Club Pro
    Aproveite o Cifra Club com benefícios exclusivos e sem anúncios
    OK