Cifra Club

De Tanto Te Querer

Fernando e Sorocaba

Cifra: Principal (violão e guitarra)
tom: D
D                    A/C#
Larga tudo e vem correndo
Bm                  E7
Vem matar minha vontade
 G                         Bm A
Já faz tempo que eu tô sofrendo
E7                    A4       A
Mereço um pouco de felicidade
D                    A/C#
Larga tudo e vem correndo
Bm                          E7
Pra eu mergulhar no teu sorriso
G                   Bm7 A  E7                A4     A
Me arranca desse inferno me leva pro seu paraíso

G                          Bm7                   E7         G A
Eu não desisto do que eu quero mais não me desespero, te espero
D                        E7         G                     A
Na tarde quente ou madrugada fria, na tristeza ou na alegria

[Solo]

E|----------------------------------------------|
B|------------------------5---------------------|
G|-------------2--4--4s6-----6s4--2--4--2-------|
D|----0--2--4------------------------------2--0-|
A|----------------------------------------------|
E|----------------------------------------------|

D                  Em                       G
Ficar sozinho não rola mais amor não se implora,
A                D
Nem se joga fora
                   Em                     G
O amor a gente conquista e não há quem desista,
 A                    D
Se e o coração chora

D             A/C#       Em
Chora com vontade de te ver
              G    A    D
Chora com saudade de você
               A/C#           Em
Chora as vezes eu nem sei porque,
             G     A       D     A/C#       E7
Deve ser te tanto te querer.. ieeeeeeee ieeeee
    G      A       D
De tanto amar você

[Solo]

       D          Em            G       A
E|------------2-----------------------3\2--0----------------------|
B|--------3-5---5--3-5-3-5-3-5-3-3------------5b7b5--3-3----------|
G|--2-2-2---------------------------------------------------------|
D|----------------------------------------------------------------|
A|----------------------------------------------------------------|
E|----------------------------------------------------------------|

G                          Bm7                   E7         G A
Eu não desisto do que eu quero mais não me desespero, te espero
D                        E7         G                     A
Na tarde quente ou madrugada fria, na tristeza ou na alegria

[Solo]

E|----------------------------------------------|
B|------------------------5---------------------|
G|-------------2--4--4s6-----6s4--2--4--2-------|
D|----0--2--4------------------------------2--0-|
A|----------------------------------------------|
E|----------------------------------------------|

 D                  Em                       G
Ficar sozinho não rola mais amor não se implora
 A                D
Nem se joga fora
                  Em                     G
O amor a gente conquista e não há quem desista
 A                    D
Se e o coração chora

D        A/C#       Em
Chora com vontade de te ver
              G    A9    D
Chora com saudade de você
               A/C#           Em
Chora as vezes eu nem sei porque
             G     A9      D     A/C#       E7
Deve ser te tanto te querer ieeeeeeee ieeeee
    G      A9      D    A/C#       E7
De tanto amar você ieeeeeeee ieeeee

E|------2-5-2------------|
B|--3-5-------5-3-3------|
G|-----------------------|
D|-----------------------|
A|-----------------------|
E|-----------------------|

[Riff 1]
E|--------------------------------------------------------------|
B|-3-3-3-3-2---2-2-3--------------------------------------------|
G|------------4-------------------------------------------------|
D|--------------------------------------------------------------|
A|--------------------------------------------------------------|
E|--------------------------------------------------------------|

[Riff 2]
E|--------------------------------------------------------------|
B|-3-3-3-3-2h3-2-3-2-3------------------------------------------|
G|--------------------------------------------------------------|
D|--------------------------------------------------------------|
A|--------------------------------------------------------------|
E|--------------------------------------------------------------|

[Riff 3]
E|--------------------------------------------------------------|
B|-3h5---3h5-3--------------------------------------------------|
G|--------------------------------------------------------------|
D|--------------------------------------------------------------|
A|--------------------------------------------------------------|
E|--------------------------------------------------------------|

[Riff 4]
E|--------------------------------------------------------------|
B|-3-2h3-2-3-2-3------------------------------------------------|
G|--------------------------------------------------------------|
D|--------------------------------------------------------------|
A|--------------------------------------------------------------|
E|--------------------------------------------------------------|
00:00 / 00:00
Outros vídeos desta música
Repetir
Outros vídeos desta música
Compositor não encontrado.
Colaboração e revisão:
  • Thúlio Florencio
1.770 exibições
    • ½ Tom
    • A
    • Bb
    • B
    • C
    • Db
    • D
    • Eb
    • E
    • F
    • F#
    • G
    • Ab
  • Adicionar à lista

    0 comentários

    Ver todos os comentários

    Conseguiu tocar?

    0 Tocaram 1 Ainda não

    Grave um vídeo tocando De Tanto Te Querer e nos envie!

    Entre para oCifra Club PRO

    Tenha acesso a benefícios exclusivos no App e no Site

    • Chega de anúncios

    • Prioridade de compra em lançamentos

    • Mais recursos no app do Afinador

    • Atendimento Prioritário

    • Descontos nos produtos Cifra Club

    • Ajude a produzir mais conteúdo

    00:00 / 00:00

    Cifra Club Pro

    Aproveite o Cifra Club com benefícios exclusivos e sem anúncios
    Cifra Club Pro
    Aproveite o Cifra Club com benefícios exclusivos e sem anúncios
    OK